Oops, an error
Loading. Please wait.

Now My Heart Is Full Bass Tab

405 views 1 this week
no commentswrite comment
1 2 3 4 5
please rate
add to favorites
launch autoscroll
font size
0
reset
guitar tuner
Autoscroll
slow
fast
+/-
esc
set tempo
stop
Help us to improve Ultimate-Guitar.com Take our survey!
×
Author
Now My Heart Is Full
Morrissey

Intro
G |--------------------------------|--------------------------------||
D |--------------------------------|--------------------------------||
A |--------------------------------|-7------------------------------||
E |-5------------------------------|-------------------------0------|| 2x

G |--------------------------------|--------------------------------||
D |-----------------7--------------|--------------------------------||
A |-------------7-----------7------|--------------------------------||
E |-5------------------------------|-7-----------7---0-------0------|| 2x

G |--------------------------------|--------------------------------|
D |---------4---------------4------|---------2---------------2------|
A |--------------------------------|--------------------------------|
E |-2---------------2--------------|-0---------------0--------------|

G |---------7----------------------|--------------------------------|
D |--------------------------------|---------7----------------------|
A |-5---------------5-------4------|--------------------------------|
E |--------------------------------|-5---------------5-------0------|

G |--------------------------------|--------------------------------|
D |---------4---------------4------|---------2----------------------|
A |--------------------------------|-------------------------0---2--|
E |-2---------------2--------------|-0---------------0--------------|

G |--------------------------------|--------------------------------|
D |--------------------------------|--------------------------------|
A |-4-----------4---5---5---5---5--|-7---7---7---7---7\-------------|
E |--------------------------------|-------------------------0---4--|

Verse
G |--------------------------------|--------------------------------|
D |-7-----------7---6--------------|-4-------4---------------7------|
A |---------7---------------7------|-----------------7--7-7------7--|
E |--------------------------------|--------------------------------|

G |--------------------------------|--------------------------------|
D |--------------------------------|-----------------4--2-2--2-^4-2-|
A |-5-------5-------4---4-4---4----|-2---4---5---6------------------|
E |--------------------------------|--------------------------------|

Chorus
G |--------------------------------|--------------------------------|
D |-----------------4-2------------|-----------------4-2------------|
A |-------------4------------4-(3)-|-2-------4---5------------------|
E |-5------------------------------|--------------------------0-----|

Chorus Alternate
G |--------------------------------|-------------------2------------|
D |-----------------4---2----------|-------------2^4--------4----2--|
A |-------------4------------4-(3)-|-2------------------------------|
E |-5------------------------------|--------------------------------|

Chorus End
G |--------------------------------|--------------------------------|
D |--------------------------------|--------------------------------|
A |--------------------------------|--------------------------------|
E |-5-5-5-5-5-------5---5---5-5----|-5-5-5-5-5-------5---5---5-5----|

Break A
G |--------------------------------|--------------------------------|
D |--------------------------------|--------------------------------|
A |--------------------------------|-5---5---5---5---4---4---4---4--|
E |-5---5---5---5---5---5---5---5--|--------------------------------|

G |--------------------------------|--------------------------------|
D |--------------------------------|--------------------------------|
A |-2---2---2---2---2---2---2---2--|-7---7---7---7---7---7---7---7--|
E |--------------------------------|--------------------------------|

Break B
G |--------------------------------|--------------------------------|
D |--------------------------------|--------------------------------|
A |-9---9---9---9---9---9---9---9--|-7---7---7---7---7---7---7---7--|
E |--------------------------------|--------------------------------|

G |--------------------------------|-----------------2--------------|
D |--------------------------------|-------------2^4-----4---2---3--|
A |-5---5---5---5---5---5---5---5--|-0---0---0----------------------|
E |--------------------------------|--------------------------------|

G |--------------------------------|--------------------------------|
D |-4---4---4---4---4---4---4\--7--|--------------------------------|
A |--------------------------------|-7---7---7---7---7---7---2---4--|
E |--------------------------------|--------------------------------|

G |--------------------------------|--------------------------------|
D |--------------------------------|--------------------------------|
A |-5---5---5---5---5---5---5---5--|-7---7---7---7---7---7-7-7-9-7--|
E |--------------------------------|--------------------------------|

Order:
[00:00] Intro
[00:51] Verse
[01:18] Chorus 4x | Ending
[01:49] Break A
[02:01] Verse 2x
[02:28] Chorus 3x | Alternate | Ending
[02:59] Break B
[03:24] Chorus 4x | Alternate | Chorus 7x

 
Suggest correction
Give kudos to tab author, rate the tab!
1 2 3 4 5
comments
print report bad tab
guest
You may want to rate the tab now too:
select rating
Wanna post a correction for this tab? Suggest correction