Oops, an error
Loading. Please wait.

Ordinary Boys Bass Tab

387 views 1 this week
no commentswrite comment
1 2 3 4 5
please rate
add to favorites
launch autoscroll
font size
0
reset
guitar tuner
Autoscroll
slow
fast
+/-
esc
set tempo
stop
Help us to improve Ultimate-Guitar.com Take our survey!
×
Author
The Ordinary Boys
Morrissey

Intro A
G |------------------------------------------------|
D |-5---5---5---5---5---5---5---5---5---5---5---5\-|
A |------------------------------------------------|
E |------------------------------------------------|

Intro B
G |------------------------------------------------||
D |---2-----2-----------------2-----2--------------||
A |-------------3---2-------------------3---2------||
E |-3-----3-------------3---3-----3-------------3--|| 2x

Chorus
G |------------------------------------------------|
D |------------------------------------------------|
A |-------------------------5----------(5)------3--|
E |-3-----------3---2---3--------------------------|

G |------------------------------------------------|
D |------------------------------------------------|
A |-1------------1---0---1---3----------3---2---0--|
E |------------------------------------------------|

Alternate Chorus Part
G |------------------------------------------------|
D |------------------------------------------------|
A |-----------------2---3---5----------(5)------3--|
E |-3-----------3----------------------------------|

Chorus End
G |------------------------------------------------|
D |------------------------------------------------|
A |-------------------------5-------------------3--|
E |-3----------------------------------------------|

G |------------------------------------------------|
D |------------------------------------------------|
A |-1------------1---0---1---3---------------------|
E |------------------------------------------------|

After Chorus
G |------------------------------------------------||
D |-2-------0---2------------0---------------------||
A |-----2----------------------------0---0---------||
E |------------------------------------------------|| 2x

G |------------------------------------------------|
D |------------------------------------------------|
A |---8-----8---8-\----------3-------------------3-|
E |-5-----5----------------------------------------|  

G |------------------------------------------------|
D |------------------------------------------------|
A |-5--------------------3---5-------3---5---------|
E |------------------------------------------------|


Order:
[00:04] Intro

[00:16] Chorus 3x | Chorus End
[00:48] After Chorus
Repeat This (But use Alternate Chorus Part)

[01:52] Chorus 2x | Alt. Chorus Part | Chorus
[02:24] After Chorus (Alternate part)

[02:40] Intro B
[02:49] Play a single A#, C#, E
Suggest correction
Give kudos to tab author, rate the tab!
1 2 3 4 5
comments
print report bad tab
guest
You may want to rate the tab now too:
select rating
Wanna post a correction for this tab? Suggest correction