Oops, an error
Loading. Please wait.

Sing Your Life Bass

790 views 12 this week
no commentswrite comment
1 2 3 4 5
2 more votes to show rating
add to favorites
×
Save as Personal and add changes to this tab that will be seen only by you. Learn more ›
×
You can save this tab as Personal to edit and correct it or add notes. All changes will be seen only by you. Learn more »
save as personal
new!
launch autoscroll
font size
0
reset
guitar tuner
backing track
0:00
0:00
Autoscroll
slow
fast
+/-
esc
set tempo
stop
Author
Tuning
E A D G
Sing Your Life
Morrissey

Verse A
G |--------------------------------|-3-----------3---5-----------5--|
D |-5-----------3---5-----------3--|-------3---------------5--------|
A |-------5---------------5--------|--------------------------------|
E |--------------------------------|--------------------------------|

Chorus
G |-8-----8---------7-----7--------|-8-----8--------------2------5--|
D |--------------------------------|-----------------3--------------|
A |--------------------------------|--------------------------------|
E |--------------------------------|--------------------------------|

VerseB
G |-3---------------3--------------|-0---------------0--------------|
D |-------3---------------3--------|-------0--------------0---------|
A |--------------------------------|--------------------------------|
E |--------------------------------|--------------------------------|

G |-5---------------5--------------|-8-----12---15------------------|
D |-------5---------------5--------|--------------------------------|
A |--------------------------------|-----------------9----10-----9--|
E |--------------------------------|--------------------------------|

Order:
[00:15] A Huge Slide

[00:16] Verse A 2x
[00:27] Chorus
[00:32] Verse B 2x
Repeat This

 
Suggest correction
Give kudos to tab author, rate the tab!
1 2 3 4 5
comments
print report bad tab
guest
You may want to rate the tab now too:
select rating
Wanna post a correction for this tab? Suggest correction