Oops, an error
Loading. Please wait.

To Me You Are A Work Of Art chords

3,302 views 6 this week
1 commentread comment
1 2 3 4 5
1 last vote to show rating
add to favorites
×
Save as Personal and add changes to this tab that will be seen only by you. Learn more ›
×
You can save this tab as Personal to edit and correct it or add notes. All changes will be seen only by you. Learn more »
launch autoscroll
font size
0
reset
transpose
0
reset
display chords
guitar tuner
edit
Autoscroll
slow
fast
+/-
esc
set tempo
stop
Strumming
There is no strumming pattern for this song yet. and get +5 IQ
To Me You Are A Work Of Art
(Morrissey / Alain Whyte)


The acoustic guitar has capo on 4th fret. I tab the actual chords
and not the grabbed chords. So the A chord is A as a barre chord at the fifth fret. Tabs start counting at 4th fret = 0!

When I play this song I use to imitate the bass line of the verse part like this:

     C#
1 ---0-0-0-0-0----0-0-0-0-0-----0-0-0-0-0----0-0-0-0-------
2 ---2-2-2-2-2----2-2-2-2-2-----2-2-2-2-2----2-2-2-2-------
3 ---2-2-2-2-2----2-2-2-2-2-----2-2-2-2-2----2-2-2-2-------
4 ---2-2-2-2-2----2-2-2-2-2-----2-2-2-2-2----2-2-2-2-------
5 ---0-0-0-0-0----0-0-0-0-0-----0-0-0-0-0----0-0-0-0-3-0---
6 ---0-0-0-0-0----0-0-0-0-0-3---0-0-0-0-0----0-0-0-0-------

     F#
1 ---2-2-2-2-2----2-2-2-2-2-----2-2-2-2-2----2-2-2-2-------
2 ---3-3-3-3-3----3-3-3-3-3-----3-3-3-3-3----3-3-3-3-------
3 ---2-2-2-2-2----2-2-2-2-2-----2-2-2-2-2----2-2-2-2-------
4 ---0-0-0-0-0----0-0-0-0-0-----0-0-0-0-0----0-0-0-0-3-0---
5 ---0-0-0-0-0----0-0-0-0-0-3---0-0-0-0-0----0-0-0-0-------
6 ---2-2-2-2-2----2-2-2-2-2-----2-2-2-2-2----2-2-2-2-------


C#    F#    C#    F#

C#
I live a life, I feel the pain, 
I sing a song to tell the tale
F#
I wish I'd never ever heard the song
C#
I see the world, it makes me puke, 
but then I look at you and know that
F#
Somewhere there's a someone who can sooth me

A             E   B       A
  To me you are a work of art
            A           E   
And I would give you my heart
            B   A
That's if I had one

C#    F#

C#
I see the world, it makes me puke, 
but then I look at you and know that
F#
Somewhere there's a someone who can soothe me

A             E B         E
  To me you are a work of art
            A           E   
And I would give you my heart
            B   A          E
That's if I had one... had one

C#    F#    C#    F#

A             E B         E
  To me you are a work of art
            A           E   
And I would give you my heart
            B   A
That's if I had one

C#    F#    C#    F#
C#    F#    C#    F#


Some solo bits and pieces as I use to play them on acoustic guitar:

     C#                                     
4 ---10--10--9--9--7---5--7----10--10--9--9--7---5--7---
5 ----0---0--0--0--0---0--0-----0---0--0--0--0---0--0---

     F#                                     
4 ---5--5--4--4--2---0--2----5--5--4--4--2---0--2---
5 ---0--0--0--0--0---0--0----0--0--0--0--0---0--0---

     C#                                     
4 ---10--10--9--9--7---5--7----10--10--9--9--7---5--7---
5 ----0---0--0--0--0---0--0-----0---0--0--0--0---0--0---

     F#                                     
4 ---5--5--4--4--2---0--2----5--5--4--4--2---0--2---
5 ---0--0--0--0--0---0--0----0--0--0--0--0---0--0---

     C#                                     
4 ---7-7-7-7-7-5-7-9-10-9-7-5--7-7-7-7-7-5-7-9-10-9-7-5---
5 ---0-0-0-0-0-0-0-0--0-0-0-0--0-0-0-0-0-0-0-0--0-0-0-0---

     F#                                     
4 ---9-10-9-7--7-5-7---7--5-7-5-4--2-4-5---
5 ---0--0-0-0--0-0-0---0--0-0-0-0--0-0-0---

     C#                                     
4 ---7-7-7-7-7-5-7-9-10-9-7-5--7-7-7-7-7-5-7-9-10-9-7-5---
5 ---0-0-0-0-0-0-0-0--0-0-0-0--0-0-0-0-0-0-0-0--0-0-0-0---

     F#                                     
4 ---9-10-9-7--7-5-7---7--5-7-5-4--2-4-5---
5 ---0--0-0-0--0-0-0---0--0-0-0-0--0-0-0---

     C#                                     
4 ---7-7-7-7-7-5-7-9-10-9-7-5--7-7-7-7-7-5-7-9-10-9-7-5---
5 ---0-0-0-0-0-0-0-0--0-0-0-0--0-0-0-0-0-0-0-0--0-0-0-0---

     F#                                     
4 ---9-10-9-7--7-5-7---7--5-7-5-4--2-4-5---
5 ---0--0-0-0--0-0-0---0--0-0-0-0--0-0-0---

     C#                                     
4 ---7-7-7-7-7-5-7---
5 ---0-0-0-0-0-0-0---

            
            
Suggest correction
Creating personal tab
Creating personal tab
You can edit any tab online and save it as your Personal.

You can edit, replace or remove any tab part or add personal notes – all changes will be seen only by you.

Personal tabs can be accessed anytime from any device, even offline.
Learn more »
Give kudos to tab author, rate the tab!
1 2 3 4 5
comments
print report bad tab
1 comment total.
0 reply
theeternalsleep 10 Apr 17, 2007 12:52 PM

it just doesn't sound at all right!
i'm not being mean, it really just doesn't work for me
sorry x

guest
You may want to rate the tab now too:
select rating
Wanna post a correction for this tab? Suggest correction