Oops, an error
Loading. Please wait.

We Hate It When Our Friends Become Successful Bass Tab

1,422 views 1 this week
no commentswrite comment
1 2 3 4 5
please rate
add to favorites
launch autoscroll
font size
0
reset
guitar tuner
Tab Pro tools
  • play this tab
  • loop segment
  • change instrument
  • show fretboard
  • metronome
×
Best way to learn
"We Hate It When Our Friends Become Successful"
Autoscroll
slow
fast
+/-
esc
set tempo
stop
Contributor
We Hate It When Our Friends Become Successful
Morrissey


Chorus
G |--------------------------------|--------------------------------|
D |--------------------------------|--------------------------------|
A |--------------------------------|-2-2-2-2-2-2-2-2-4-4-4-4-4-4-4-4|
E |-2-2-2-2-2-2-2-2-4-4-4-4-4-4-4-4|--------------------------------|

G |--------------------------------|--------------------------------|
D |--------------------------------|--------------------------------|
A |-6-6-6-6-6-6-6-6-7-7-7-7-7-7-7-7|-----------------2-------4------|
E |--------------------------------|-4-4-4-4-4-4--------------------|

Verse
G |--------------------------------|--------------------------------|
D |--------------------------------|--------------------------------|
A |-------------1-1-2-----2-2------|-------------6-5-4----4---------|
E |-2-----2-2(2)----------------2-3|-4-----4-4-----------------4-2--|

Bridge
G |--------------------------------|--------------------------------|
D |--------------------------------|--------------------------------|
A |-5---5---5-4-2-0--0-0--0---0-2-4|\5^7-7-7-5^7-7-7-5^7-7-7-5^7-7-7|
E |--------------------------------|--------------------------------|

G |--------------------------------|--------------------------------|
D |--------------------------------|--------------------------------|
A |-5---5---5-4-2-0------(0)-------|---------1-------2---2---4------|
E |--------------------------------|-4------------------------------|

Break
G |--------------------------------||    |--------------------------------|
D |--------------------------------||    |--------------------------------|
A |-6-6-6-----4---2----2^1-2---4---||    |---------1-------2-----2-1-2-4--|
E |--------------------------------||3x  |-4------------------------------|

Outro
G |--------------------------------|--------------------------------||
D |--------------------------------|--------------------------------||
A |--------------------------------|--------------------------------||
E |-2-2-2-2-2-2-2-2-4-4-4-4-4-4-4-4|-6-6-6-6-6-6-6-6-7-7-7-7-7-7-7\-|| 2x

G |--------------------------------|--------------------------------|
D |-4-4-4---4-4-4--6-6-6----6-6-6--|-8-8-8---8-8-8---9-9-8-8-6-6-8-8|
A |--------------------------------|--------------------------------|
E |--------------------------------|--------------------------------|

G |-----6-6-----6-6----8-8------8-8|----10-10---10-10-----------------------|
D |-4-4-----4-4----6-6------6-6----|-8-8-----8-8----------------------------|
A |--------------------------------|-----------------------2-2-2---4-4-4----|
E |--------------------------------|--------------------------------------2-|

Order:
[00:00] Chorus

[00:13] Verse 2x
[00:27] Bridge
[00:xx] Chorus
Repeat this once

[01:33] Break
[01:47] Chorus
[02:00] Outro (Lalalalaaa)

 
comments
We did not receive enough feedback on this tab! Please rate:
print report bad tab
1 2 3 4 5
I want to post or [tab]
guest
You may want to rate the tab now too:
select rating
Please do not post tabs as comments. Select "correction" instead!