Oops, an error
Loading. Please wait.

You Have Killed Me Bass Tab

2,038 views 1 this week
no commentswrite comment
1 2 3 4 5
please rate
add to favorites
launch autoscroll
font size
0
reset
guitar tuner
Tab Pro tools
  • play this tab
  • loop segment
  • change instrument
  • show fretboard
  • metronome
×
Best way to learn
"You Have Killed Me"
Autoscroll
slow
fast
+/-
esc
set tempo
stop
Contributor
You Have Killed Me
Morrissey
Bass Tab
Bassist: Gary Day

128BPM, 4/4

Intro

|------------|--------------|------------|------------|
|------------|--------------|------------|------------|
|------------|--------------|------------|------------|
|-4---4-4----|-4---4-4--6-7-|-0---0-0----|-0---0-0----|

|------------|--------------|------------|--------------|
|------------|--------------|------------|--------------|
|------------|--------------|------------|--------------|
|-4---4-4----|-4---4-4--6-7-|-0---0-0----|-0---0-0--2-0-|

Verse

|------------|--------------|-------------|--------------|
|------------|--------------|-------------|--------------|
|------------|--------------|-------------|--------------|
|-4---4-4----|-4---4-4--6-7-|-0---0-0---2-|--0-0---0-2-0-|

|------------|-------------|------------|--------------|
|------------|-------------|------------|--------------|
|------------|-------------|------------|----------2/3-|
|-4---4-4----|-4---4-4--7--|-0---0-0----|-0---0-0------|

|--------------|--------------|--------------|--------------|
|--------------|--------------|--------------|--------------|
|-4---4-4-4----|-4---4-4-4----|--------------|-----------4--|
|-----------4--|-----------4--|-2---2-2-2-2--|-2---2-2-2----|

|--------------|------------|-------------|--------------|
|--------------|------------|-------------|--------------|
|-2---2-2-2----|-2-----2----|-6---6-6-----|-6-6-4--------|
|-----------2--|---------2--|-----------6-|--------7--6--|

Chorus

||---------------|--------------|--------------|---------------|| *Second time only
||o--------------|--------------|--------------|--------------o||
||o--------------|-7---7-7-7-7--|--------------|--------------o||
||--4---4-4-4-4--|--------------|-7---7-7-7-7--|-2---2-3---4*--||

|-------------|-------------|------------|------------|
|-------------|-------------|------------|------------|
|-4---4-4-----|-4---4-4-----|------------|------------|
|----------4--|----------4--|-2---2-2----|-3---3-3----|

|-------------|---------------|-------------|--------------|
|-------------|---------------|-------------|--------------|
|-------------|---------------|-------------|--------------|
|-4---4-4-4---|-4---4-4-4-6-7-|-0---0-0-0---|-0---0-0--2-0-|

|-------------|--------------|-------------|--------------|
|-------------|--------------|-------------|--------------|
|-------------|--------------|-------------|--------------|
|-4---4-4--4--|-4---4-4--6-7-|-0---0-0-0---|-0---0-0--2-0-|

Verse

|------------|--------------|-------------|--------------|
|------------|--------------|-------------|--------------|
|------------|--------------|-------------|--------------|
|-4---4-4----|-4---4-4--6h7-|-0---0-0---2-|--0-0---0-2-0-|

|------------|--------------|------------|-------------|
|------------|--------------|------------|-------------|
|------------|--------------|------------|----------2--|
|-4---4-4----|-4---4-4--6h7-|-0---0-0----|-0---0-0-----|

|--------------|--------------|--------------|--------------|
|--------------|--------------|--------------|--------------|
|-4---4-4-4----|-4---4-4-4----|--------------|-2---------4--|
|-----------4--|-----------4--|-2---2-2-2-2--|-----2-2-2----|

|--------------|--------------|-------------|--------------|
|--------------|--------------|-------------|--------------|
|-2---2-2-2----|-2---2-2-2----|-6---6-6-----|-6-6-4--------|
|-----------2--|-----------2--|-----------6-|--------7--6--|

Chorus

||---------------|--------------|--------------|------------------|| *First time only
||o--------------|--------------|--------------|-----------------o||
||o--------------|---------7-7--|--------------|-----------------o||
||--4---4-4-4-4--|-0---0-0------|-7---7-7-7-7--|-2-2--2-3-3--3h*--||

Bridge

|-----------------|-----------------|-----------------|-----------------|
|-----------------|-----------------|-----------------|-----------------|
|-2-2-2-2-2-2-2-2-|-2-2-2-2-2-2-2-2-|-----------------|-----------------|
|-----------------|-----------------|-5-5-5-5-5-5-5-5-|-5-5-5-5-5-5-5-5-|

|--------------|----------------|---------------|----------------|
|--------------|----------------|---------------|----------------|
|-4-----4-4----|-6-6-----6-6----|-7-7----7------|-----------4-6--|
|-----4------6-|-------6------7-|------7---7-0--|-6-6-6-6-6------|

Chorus/Ending

|--------------|--------------|--------------|--------------|
|--------------|--------------|--------------|--------------|
|--------------|---------7-7--|--------------|--------------|
|-4---4-4-4-4--|-0---0-0------|-7---7-7-7-7--|-2-2--2-3--3--|

|--------------|--------------|--------------|--------------|
|--------------|--------------|--------------|------4-2--2--|
|--------------|---------7-7--|--------------|--------------|
|-4---4-4-4-4--|-0---0-0------|-7---7-7-7-7--|-2-2----------|

|-------------|---------------|--------------|------------|
|-------------|---------------|--------------|------------|
|-------------|---------------|--------------|------------|
|-4---4-4--4--|-0---0-0-0-0-0-|-7---7-7-7-7--|-2---2-3----|

|-------------|---------------|-----------------|-----------|
|-------------|---------------|-----------------|-----------|
|-------------|------------7--|-----------------|-----------|
|-4---4-4-4---|-0---0-0-0-----|-6/7-7-7-7-7-7-7-|-2----3----|

|----------|---------|---------|---------*|
|----------|---------|---------|---------*|
|----------|---------|---------|---------*|
|-4--------|---------|---------|---------*|
comments
We did not receive enough feedback on this tab! Please rate:
print report bad tab
1 2 3 4 5
I want to post or [tab]
guest
You may want to rate the tab now too:
select rating
Please do not post tabs as comments. Select "correction" instead!