Oops, an error
Loading. Please wait.

Youngest Was The Most Loved Bass Tab

242 views 1 this week
no commentswrite comment
1 2 3 4 5
3 more votes to show rating
add to favorites
launch autoscroll
font size
0
reset
guitar tuner
Autoscroll
slow
fast
+/-
esc
set tempo
stop
Help us to improve Ultimate-Guitar.com Take our survey!
×
Author
The Youngest Was the Most Loved
Morrissey
Bass Tab
Bassist: Gary Day

180BPM, 3/4

Intro

|----------|----------|----------|-------|----------|----------|
|----------|-2--2--2--|----------|-------|----------|----------|
|-0--0--0--|----------|----------|-------|----------|----------|
|----------|----------|-1--1--1--|-------|-1--1--1--|-3--3--3--|

132BPM, 4/4

Chorus

|----------------|----------------|---------------|----------------|
|----------------|----------------|---------------|------5-7-5-----|
|----------------|----------------|---------------|--5-7-------7-5-|
|-5-5-5-5-5-0--1-|-1-1-1-1-1-0--1-|--0-1-3--0-3-5-|----------------|

|----------------|----------------|---------------|---------------|
|----------------|----------------|---------------|---------------|
|----------------|----------------|---------------|---------------|
|-5-5-5-5-5-0--1-|-1-1-1-1-1-0--1-|--0-1-3--0-3-5-|--5-5-5-5-5-5--|

Verse

|-------------|-------------|---------------|----------------|
|-------------|-------------|---------------|----------------|
|-------------|-3---3-3-3---|-5---5-5-5-5\--|----------------|
|-5---5-5-5---|-------------|---------------|--1-1-1-1-1-1-1-|

|------------|-------------|---------------|----------------|
|------------|-------------|---------------|----------------|
|------------|-3---3-3-3---|-5---5-5-5-5\--|----------------|
|-5---5-5----|-------------|---------------|--0-0-0-0-0-0-0-|

|-----------------|---------------|-----------------|---------------|
|-3-3-3-3-3-3-3---|---------------|---------------2-|--2-2--2-2-2-2-|
|---------------3-|--3-3--3-3-3-3-|-----------------|---------------|
|-----------------|---------------|-0-0-0-0-0-0-0---|---------------|

|-----------------|---------------|-----------------|---------------|
|-3-3-3-3-3-3-3---|---------------|-----------------|---------------|
|---------------3-|--3-3--3-3-3-3-|-----------------|---------------|
|-----------------|---------------|-5-5-5-5-5-5-5-0-|--0-0--0-0-0-0-|

Chorus

|----------------|---------------|---------------|-----------------|
|----------------|---------------|---------------|--/7-5-----------|
|----------------|---------------|---------------|-------7-5-3-----|
|-5-5-5-5-5-0--1-|--1-1-1-1-0--1-|--0-1-3--0-3-5-|-------------5-3-|

|----------------|---------------|---------------|----------------|
|----------------|---------------|---------------|----------------|
|----------------|---------------|---------------|----------3-----|
|-5-5-5-5-5-0--1-|--1-1-1-1-0--1-|--0-1-3--0-3-5-|--5-5-5-5---5-3-|

Verse

|-------------|---------------|---------------|----------------|
|-------------|---------------|---------------|----------------|
|-------------|-3---3-3-3-3-3-|-5---5-5-5-5\--|----------------|
|-5---5-5-5---|---------------|---------------|--1-1-1-1-1-3-3-|

|-------------|---------------|---------------|----------------|
|-------------|---------------|---------------|----------------|
|-------------|-3---3-3-3-3-3-|-5---5-5-5-5\--|----------------|
|-5---5-5-5---|---------------|---------------|--0-0-0-0-0-0-0-|

|-----------------|---------------|-----------------|----------------|
|-----------------|---------------|---------------2-|--2-2-2-2-2-2-2-|
|---------------3-|--3-3--3-3-3-3-|-----------------|----------------|
|-1-1-1-1-1-1-1---|---------------|-0-0-0-0-0-0-0---|----------------|

|-----------------|----------------|-----------------|---------------|
|-3-3-3-3-3-3-3---|----------------|-----------------|---------------|
|---------------3-|--3-3-3-3-3-3-3-|-----------------|---------------|
|-----------------|----------------|-5-5-5-5-5-5-5-0-|--0-0--0-0-0-0-|

Chorus

|----------------|---------------|---------------|-----------------|
|----------------|---------------|---------------|--/7-5-----------|
|----------------|---------------|---------------|-------7-5-3-----|
|-5-5-5-5-5-0--1-|--1-1-1-1-0--1-|--0-1-3--0-3-5-|-------------5-3-|

|----------------|----------------|---------------|----------------|
|----------------|----------------|---------------|----------------|
|----------------|----------------|---------------|----------------|
|-5-5-5-5-5-0--1-|-1-1-1-1-1-0--1-|--0-1-3--0-3-5-|--5-5-5-5-5-5-5-|

|----------------|---------------|---------------|----------------|
|----------------|---------------|---------------|----------------|
|----------------|---------------|---------------|----------------|
|-5-5-5-5-5-0--1-|--1-1-1-1-0--1-|--0-1-3--0-3-5-|--5-5-5-5-5-5-5-|

|----------------|---------------|---------------|----------------|
|----------------|---------------|---------------|----------------|
|----------------|---------------|---------------|----------------|
|-5-5-5-5-5-0--1-|--1-1-1-1-0--1-|--0-1-3--0-3-5-|--5-5-5-5-5-5-3-|

Bridge

|-----------------|-----------------|-----------------|-----------------|
|-----------------|-----------------|-----------------|-----------------|
|-----------------|-----------------|-----------------|-----------------|
|-1-1-1-1-1-1-1-1-|-1-1-1-1-1-1-1-1-|-0-0-0-0-0-0-0-0-|-0-0-0-0-0-0-0-0-|

|-----------------|-----------------|-----------------|-----------------|
|-----------------|-----------------|-----------------|-2-2-2-2-2-2-2-2-|
|-----------------|-----------------|-5-5-5-5-5-5-5-5-|-----------------|
|-1-1-1-1-1-1-1-1-|-1-1-1-1-1-1-1-1-|-----------------|-----------------|

Coda


|----------------|----------------|---------------|----------------|
|----------------|----------------|---------------|------5-7-5-----|
|----------------|----------------|---------------|--5-7-------7-5-|
|-5-5-5-5-5-0--1-|-1-1-1-1-1-0--1-|--0-1-3--0-3-5-|----------------|

|----------------|----------------|---------------|-----------------|
|----------------|----------------|---------------|--/7-5-----------|
|----------------|----------------|---------------|-------7-5-3-----|
|-5-5-5-5-5-0--1-|-1-1-1-1-1-0--1-|--0-1-3--0-3-5-|-------------5-3-|

|----------------|---------------|---------------|----------------|
|----------------|---------------|---------------|----------------|
|----------------|---------------|---------------|----------------|
|-5-5-5-5-5-0--1-|--1-1-1-1-0--1-|--0-1-3--0-3-5-|--5-5-5-5-5-5-5-|

|----------------|----------------|---------------|---------|
|----------------|----------------|---------------|---------|
|----------------|----------------|---------------|---------|
|-5-5-5-5-5-0--1-|-1-1-1-1-1-0--1-|--0-1-3--0-3-5-|---------|

|---------|---------*|
|---------|---------*|
|---------|---------*|
|---------|---------*|
Suggest correction
Give kudos to tab author, rate the tab!
1 2 3 4 5
comments
print report bad tab
guest
You may want to rate the tab now too:
select rating
Wanna post a correction for this tab? Suggest correction