Oops, an error
Loading. Please wait.

Youre The One For Me Fatty Bass Tab

1,345 views 6 this week
no commentswrite comment
1 2 3 4 5
please rate
add to favorites
launch autoscroll
font size
0
reset
guitar tuner
Autoscroll
slow
fast
+/-
esc
set tempo
stop
Help us to improve Ultimate-Guitar.com Take our survey!
×
Author
You're The One For Me, Fatty
Morrissey

Intro
G |--------------------------------|--------------------------------|
D |--------------------------------|--------------------------------|
A |--------------------------------|--------------------------------|
E |-3~~----------------------------|-3---3~~------------------------|

G |--------------------------------|--------------------------------|
D |--------------------------------|--------------------------------|
A |--------------------------------|--------------------------------|
E |-3--3~~-------------------------|-3---3--(3)-(3)-(3)-(3)-(3)-(3)-|

Chorus
G |--------------------------------|--------------------------------|
D |--------------------------------|--------------------------------|
A |-------------------------0---2--|-3-------2---3---5-------3---2--|
E |-3-----------3---3--------------|--------------------------------|

G |--------------------------------|--------------------------------|
D |--------------------------------|--------------------------------|
A |-------------------------0---2--|-3-------2---3---5-------5------|
E |-3-----------3---3--------------|--------------------------------|

G |--------------------------------|--------------------------------|
D |--------------------------------|---------2---------------4------|
A |-7-----------7---7-------5---3--|-3-----------3---5-----------5--|
E |--------------------------------|--------------------------------|

G |--------------------------------|--------------------------------|
D |--------------------------------|---------2----------------------|
A |-7-----------7---7-------5---3--|-3--(3)------3---5---5---3---2--|
E |--------------------------------|--------------------------------|

Chorus End
G |--------------------------------|--------------------------------|
D |--------------------------------|--------------------------------|
A |--------------------------------|--------------------------------|
E |-3---3---3---3---3---3---3---3--|-1---1---1---1---1---1---1---1--|

G |--------------------------------|--------------------------------|
D |--------------------------------|--------------------------------|
A |-3-------3---3---3-------3---3--|-3-------3---3---3-------3------|
E |--------------------------------|--------------------------------|

Verse
G |--------------------------------|--------------------------------|
D |--------------------------------|--------------------------------|
A |-7---7---5---5---4---4---3---3--|-2---2---4---4---5---5---7---7--|
E |--------------------------------|--------------------------------|

G |--------------------------------|--------------------------------|
D |-7---7---5---5---4---4---2---2--|---------5---------------7------|
A |--------------------------------|-3---3-------3---5---5-------5--|
E |--------------------------------|--------------------------------|

G |--------------------------------|--------------------------------|
D |--------------------------------|--------------------------------|
A |-7---7---5---5---4---4---3---3--|-2---2---4---4---5---5---7---7--|
E |--------------------------------|--------------------------------|

G |--------------------------------|--------------------------------|
D |-7---7---5---5---4---4---2---2--|--------------------------------|
A |--------------------------------|-3-------2---0---5-------5---5--|
E |--------------------------------|--------------------------------|

Break
G |--------------------------------|--------------------------------|
D |--------------------------------|-3---3---2---3---5---5---3---2--|
A |-0---0---2---2---3---3---5---5--|--------------------------------|
E |--------------------------------|--------------------------------|

G |--------------------------------|--------------------------------|
D |--------------------------------|-3---3---2---3---5-------5------|
A |-0---0---2---2---3---3---5---5--|--------------------------------|
E |--------------------------------|--------------------------------|

G |--------------------------------|--------------------------------|
D |--------------------------------|-3---3---2---3---5---5---3---2--|
A |-0---0---2---2---3---3---5---5--|--------------------------------|
E |--------------------------------|--------------------------------|

G |--------------------------------|--------------------------------|
D |-------------------------0---0--|-3------------------------------|
A |-0---0---2---2---3---3----------|-----------------2--------------|
E |--------------------------------|--------------------------------|

G |--------------------------------|--------------------------------|
D |--------------------------------|--------------------------------|
A |--------------------------------|--------------------------------|
E |-3~~~---------------------------|--------------------------------|

Order:
[00:00] Intro
[00:13] Chorus 2x | Chorus End
[00:48] Verse 2x
[01:02] Chorus 2x | Chorus End
[01:36] Verse 2x
[01:50] Chorus 2x | Chorus End
[02:11] Break
[02:32] Chorus | Chorus End

 
Suggest correction
Give kudos to tab author, rate the tab!
1 2 3 4 5
comments
print report bad tab
guest
You may want to rate the tab now too:
select rating
Wanna post a correction for this tab? Suggest correction