Oops, an error
Loading. Please wait.

Derribando Muros Tab

11 views 1 this week
no commentswrite comment
1 2 3 4 5
3 more votes to show rating
add to favorites
launch autoscroll
font size
0
reset
how to read this tab
guitar tuner
Autoscroll
slow
fast
+/-
esc
set tempo
stop
Help us to improve Ultimate-Guitar.com Take our survey!
×
derribando muros
morsa payasa

estrofa

describir un objetivo 
y saber como pensar
es la ciencia de observar
el mundo de otro lugar
yo aprendi a distinguir
cual era mi lugar
en esta orbe llena de suciedad

mira a tu alrededor
y veras solo muros 
la gente te impedira
surguir en esta realidad
pero no te heches atras
levanta y sigue siempre igual
para asi poder triunfar

coro

derribando muros
es la unica opcion a seguir
sigue siempre duro
y no te rindas confia en ti

derribando muros
para tu objetivo conseguir
sigue siempre duro
vamos no te heches a morir


estrofa

caminaras golpeando puertas
y todas se cerraran
tus energias se hiran
y de ti nada quedara
muchos se reiran
y pocos te escucharan
pero mantente en pie que el momento llegara

para todos hay una oportunidad
pero atento tienes que estar
derrinbando muros la encontraras
no te le valla a pasar
por eso mantente siempre en pie
para que no se te vaya el tren 
y asi tu objetivo obtener

interlude

la morsa presente 
tu tambien

estrofa

-9----/--7--/--11--
-11---/--9--/--11--
-9----/--7--/--13--
-9----/--7--/--13--
-9----/--7--/--13--
-9----/--7--/--11--
coro

-1--/--5--/-3--/--5-
-3--/--7--/-5--/--7-
-3--/--5--/-5--/--5-
-2--/--5--/-4--/--5-
-1--/--5--/-3--/--5-
-1--/--5--/-3--/--5-
interlude

-9--/---------/-7--/-----------
-11-/-9-11----/-9--/--7-9----9
-11-/------9--/-9--/------7---
-------------------------------
-------------------------------
---------------------------------
Suggest correction
Give kudos to tab author, rate the tab!
1 2 3 4 5
comments
print report bad tab
guest
You may want to rate the tab now too:
select rating
Wanna post a correction for this tab? Suggest correction