Oops, an error
Loading. Please wait.

Prolong The Agony Tab

299 views 15 this week
no commentswrite comment
1 2 3 4 5
please rate
add to favorites
launch autoscroll
font size
0
reset
how to read this tab
guitar tuner
Tab Pro tools
  • play this tab
  • loop segment
  • change instrument
  • show fretboard
  • metronome
Autoscroll
slow
fast
+/-
esc
set tempo
stop
Contributor
Difficulty
Tuning
novice
C F A# D# G C
Morta Skuld - Prolong The Agony

TUNE DOWN 2 WHOLE STEPS aka C TUNING

THIS IS THE 1991 DEMO VERSION (originally in Drop C but I hate droptuning)
THE OFFICIAL VIDEO VERSION IS IN DROP B TUNING
 

INTRO RIFF 8x  (FADING IN) 
|-------------------------------------------------------------------------|
|-------------------------------------------------------------------------|
|-------------------------------------------------------------------------|
|--2--3---7---6-----------------------------------------------------------|
|--2--3---7---6--33-------------------------------------------------------|
|--0--1---5---4--11-------------------------------------------------------|
                PMPM                    

INTRO HARMONY/S  0:03  2X
|----8-7---8-7---8-----11-10---11-10---11---------------------------------|
|--5-----5-----5-----8-------8-------8------------------------------------|
|-------------------------------------------------------------------------|
|-------------------------------------------------------------------------|
|-------------------------------------------------------------------------|
|-------------------------------------------------------------------------|
CTND 0:10  2X
|-------------------------------------------------------------------------|
|-------------------------------------------------------------------------|
|----5-4---5-4---5-----8-7---8-7---8--------------------------------------|
|--2-----2-----2-----5-----5-----5----------------------------------------|
|-------------------------------------------------------------------------|
|-------------------------------------------------------------------------|


0:26
|-------------------------------------------------------------------------|
|-------------------------------------------------------------------------|
|-HOLD--------------------------------------------------------------------|
|--2---------5-6-55-4---2-------------------------------------------------|
|--2---------5-6-55-4---2-------------------------------------------------|
|--0---------3-4-33-2---0-------------------------------------------------|
            PMPMPMPMPM PM


 0:31  6x
|-------------------------------------------------------------------------|
|-------------------------------------------------------------------------|
|-------------------------------------------------------------------------|
|---------7/8--------7/8--------7/8----9/10\9-----------------------------|
|---------5/6--------5/6--------5/6----7/8-\7-----------------------------|
|-00000000---00000000---00000000---0000-----------------------------------|
  PMPMPMPM   PMPMPMPMM  PMPMPMPM   PMPM

0:58  1x
|-------------------------------------------------------------------------|
|-------------------------------------------------------------------------|
|-HOLD--------HOLD--------HOLD--------------------------------------------|
|--4-----------4-----------4----------------------------------------------|
|--4------4-4--4------4-4--4-----44--3-3-3-3-3-3-3-3-3-3-3-3-3-3-3-3------|
|--2------2-2--2------2-2--2-----22--1-1-1-1-1-1-1-1-1-1-1-1-1-1-1-1------|
         PMPM        PMPM       PMPM PMPMPMPMPMPMPMPMPMPMPMPMPMPMPMPM


VERSE RIFF 1:13  3x
|-------------------------------------------------------------------------|
|-------------------------------------------------------------------------|
|-------------------------------------------------------------------------|
|---------------7---------------------------------7-----------------------|
|-----5/4--3/4--5--5-4-3--5-4-3--5-4----5/4--3/4--5--5-4-3--5-4-3--5-4----|
|-----3/2--1/2--5--3-2-1--3-2-1--3-2----3/2--1/2--5--3-2-1--3-2-1--3-2----|
     PMPM PMPM    PMPMPM PMPMPM PMPM   PMPM PMPM    PMPMPM PMPMPM PMPM

CTND 1:32  4x
|-------------------------------------------------------------------------|
|-------------------------------------------------------------------------|
|-------------------------------------------------------------------------|
|--6-5--------7-6--------6-5-------5-4--4444------------------------------|
|--4-3--5-4---5-4--6-5---4-3--5-4--5-4--4444------------------------------|
|-------3-2--------4-3--------3-2--3-2--2222------------------------------|
                                  PMPM  PMPM  

  1:57  5x
|-------------------------------------------------------------------------|
|-------------------------------------------------------------------------|
|-------------------------------------------------------------------------|
|-------------------------------------------------------------------------|
|------7h8-7h8--7-------5h6-5h6--5--3-33333333333333----------------------|
|---------------5---0-0----------3--1-11111111111111----------------------|
                   PMPM               PMPMPMPMPMPMPM


SOLO RYTHM  2:25  8x         (SOLO COMES IN AFTER PLAYING THIS TWICE)
|-------------------------------------------------------------------------|
|-------------------------------------------------------------------------|
|---------------------------4---------------------------------------------|
|-------6---------5---------4--4-4-4--3-----------------------------------|
|-------6--6-6-6--5--5-5-5--2--2-2-2--3--3-3-3----------------------------|
|-------4--4-4-4--3--3-3-3------------1--1-1-1----------------------------|
           PMPMPM   PMPMPM    PMPMPM    PMPMPM 


SOLO  2:39
|------------------------------------------7h8p7h8p7-10p7-8p7-------------|
|9b10r9-9--8b9r8-8--12b13r12-12--6b7r6-6--(LEGATO)-REPEAT-ALOT---<5>------|
|-------------------------------------------------------------PICK-NATURAL|
|---------------------------------------------------------HARMONIC-&-BEND-|
|-------------------------------------------------------UP-FULL-STEP-W/BAR|
|-------------------------------------------------------------------------|

CTND  2:52
|--7TRILL8---------9TRILL10----------11TRILL12-------------<5>-NATURAL----|
|----------7TRILL8----------9TRILL10-----------11TRILL12-------HARMONIC---|
|---------------------------------------------------------------DIVE------|
|-------------------------------------------------------------------------|
|-------------------------------------------------------------------------|
|-------------------------------------------------------------------------|
   
    2:59                          3:04
|-------------------------------------------------------------------------|
|-------------------------------------------------------------------------|
|-------------------------------------------------------------------------|
|-DIVE--------------------------------------------------------------------|
|-DOWN---KEEP-RE-DIVING-&-PLAYING-WITH-BAR--------------------------------|
|--0----------------------------------------------------------------------|


REPRISE 3:20  1x
|-------------------------------------------------------------------------|
|-------------------------------------------------------------------------|
|-HOLD--------HOLD--------HOLD--------------------------------------------|
|--4-----------4-----------4----------------------------------------------|
|--4------4-4--4------4-4--4-----44--3-3-3-3-3-3-3-3-3-3-3-3-3-3-3-3------|
|--2------2-2--2------2-2--2-----22--1-1-1-1-1-1-1-1-1-1-1-1-1-1-1-1------|
         PMPM        PMPM       PMPM PMPMPMPMPMPMPMPMPMPMPMPMPMPMPMPM


VERSE RIFF 3:35  3x
|-------------------------------------------------------------------------|
|-------------------------------------------------------------------------|
|-------------------------------------------------------------------------|
|---------------7---------------------------------7-----------------------|
|-----5/4--3/4--5--5-4-3--5-4-3--5-4----5/4--3/4--5--5-4-3--5-4-3--5-4----|
|-----3/2--1/2--5--3-2-1--3-2-1--3-2----3/2--1/2--5--3-2-1--3-2-1--3-2----|
     PMPM PMPM    PMPMPM PMPMPM PMPM   PMPM PMPM    PMPMPM PMPMPM PMPM

  END  3:54
|-------------------------------------------------------------------------|
|-------------------------------------------------------------------------|
|-------------------------------------------------------------------------|
|--4----------------------------------------------------------------------|
|--4----------------------------------------------------------------------|
|--2----------------------------------------------------------------------|
  PM
comments
We did not receive enough feedback on this tab! Please rate:
print report bad tab
1 2 3 4 5
I want to post or [tab]
guest
You may want to rate the tab now too:
select rating
Please do not post tabs as comments. Select "correction" instead!