Oops, an error
Loading. Please wait.

Lebanon tab

version 1
version 1

Whole song

1,262 views 1 this week
1 commentread comment
1 2 3 4 5
1 last vote to show rating
add to favorites
×
Save as Personal and add changes to this tab that will be seen only by you. Learn more ›
×
You can save this tab as Personal to edit and correct it or add notes. All changes will be seen only by you. Learn more »
launch autoscroll
font size
0
reset
how to read this tab
guitar tuner
edit
Autoscroll
slow
fast
+/-
esc
set tempo
stop
Author
Artist: Mortal Sin
Song: Lebanon


e|----------|-------------|-------|----------|----------|------------|-------||
B|----------|-------------|-------|----------|----------|------------|-------||
G|----------|-------------|-------|----------|----------|------------|-------||
D|-2--------|-2--2--2--2--|-2--2--|-2--------|----------|------------|-------||
A|-2--------|-2--2--2--2--|-2--2--|-2--------|-4--------|-(4)--------|-x\----||
E|-0--------|-0--0--0--0--|-0--0--|-0--------|-2--------|-(2)--------|-x\----||


   Faster Q=160
       PM------|                 PM--------|
   E S S S S S S E S S +E  E   E S S S S S S S S S S +S  S E
e|---------------------------|-------------------------------|
B|---------------------------|-------------------------------|
G|---------------5-7-7-(7)-0-|-5-----------------------------|
D|-5-------------5-7-7-(7)-0-|-5-------------7p5---5-(5)-----|
A|-0-0-0-0-0-0-0-------------|---0-0-0-0-0-0-----7-------6-7-|
E|---------------------------|-------------------------------|


     PM--------|
   E S S S S S S E S S +E  S S
e|-----------------------------|
B|-----------------------------|
G|---------------5-7-7-(7)-0-0-|
D|-5-------------5-7-7-(7)-0-0-|
A|-0-0-0-0-0-0-0---------------|
E|-----------------------------|


   Gtr II
   W
                             ~~~~
   E S S S S S S S S S S    +Q
e|--------------------------------|
B|--------------------------------|
G|-5-------------------7b9==(7)r--|
D|-5------------------------------|
A|---0-0-0-0-0-0-6h7--------------|
E|--------------------------------|


   A5
   Q     Q       H             Q     Q       H
   |                           |
   /                           /

       PM------|                 PM--------|
   E S S S S S S E S S +E  E   E S S S S S S S S S S +S  S E
e|---------------------------|-------------------------------|
B|---------------------------|-------------------------------|
G|---------------5-7-7-(7)-0-|-5-----------------------------|
D|-5-------------5-7-7-(7)-0-|-5-------------7p5---5-(5)-----|
A|-0-0-0-0-0-0-0-------------|---0-0-0-0-0-0-----7-------6-7-|
E|---------------------------|-------------------------------|


   Q     Q       H
   |
   /
     PM--------|
   E S S S S S S E S S +E  S S
e|-----------------------------|
B|-----------------------------|
G|---------------5-7-7-(7)-0-0-|
D|-5-------------5-7-7-(7)-0-0-|
A|-0-0-0-0-0-0-0---------------|
E|-----------------------------|


  Q     Q          H             W
  |
  /
                                  Gtrs I, II
                                      PM------|
   E S S S S S  S   E.  S   Q     E S S S S S S E S S +E  S S
e|------------------------------|-----------------------------|
B|------------------------------|-----------------------------|
G|-5-----------------------<5>--|---------------5-7-7-(7)-0-0-|
D|-5---------------<5>-<5>------|-5-------------5-7-7-(7)-0-0-|
A|---0-0-0-0-0-<5>--------------|-0-0-0-0-0-0-0---------------|
E|------------------------------|-----------------------------|
                               |-Rhy Fig 1

     PM--------|                     PM--------|
   E S S S S S S S S S S +S  S E   E S S S S S S E S S +E  S S
e|-------------------------------|-----------------------------|
B|-------------------------------|-----------------------------|
G|-------------------------------|---------------5-7-7-(7)-0-0-|
D|-5-------------7p5---5-(5)-----|-5-------------5-7-7-(7)-0-0-|
A|-0-0-0-0-0-0-0-----7-------6-7-|-0-0-0-0-0-0-0---------------|
E|-------------------------------|-----------------------------|


     PM--------|
   E S S S S S S S S S S +S  S E
e|--------------------------------||
B|--------------------------------||
G|-5------------------------------||
D|-5-------------7p5---5-(5)------||
A|---0-0-0-0-0-0-----7-------6-7--||
E|--------------------------------||
                  end Rhy Fig 1-|


[Verse]

     $
     Gtrs I, II
     E Q.   E Q.     E Q.   E. S +E  E
e|----------------|-------------------|
B|o---------------|-------------------|
G|--7-7-----------|-7-7---------------|
D|--7-7----5-5----|-7-7---------------|
A|o-5-5----5-5----|-5-5----3--2-(2)---|
E|---------3-3----|-----------------3-|
 |-Rhy Fig 2            end Rhy Fig 2-|

Rhy Fig 1
Rhy Fig 2
Rhy Fi g 1 (1st 2 bars)

                                                 7/8
                   |-3-| |-3-|
   E Q.   +H       Q Q Q Q Q Q   E E Q  S S E Q    S S E Q  E. S +E
e|---------------|-------------|-----------------|-------------------|
B|---------------|-------------|-----------------|-------------------|
G|---9----(9)----|-------------|-----------------|-------------------|
D|---9----(9)----|-------------|-2---2----2---2--|---2---2--5--------|
A|---7----(7)----|-------3-2---|-0---0----0---0--|---0---0--3--5-(5)-|
E|-0-------------|-3-2-3-----3-|--------3--------|-3-----------3-(3)-|


  4/4               7/8                 4/4
   E E Q  S S E Q    S S E Q  E. S +E    E E Q  S S E Q
e|-----------------|-------------------|-----------------|
B|-----------------|-------------------|-----------------|
G|-----------------|-------------------|-----------------|
D|-2---2----2---2--|---2---2--5--------|-2---2----2---2--|
A|-0---0----0---0--|---0---0--3--5-(5)-|-0---0----0---0--|
E|--------3--------|-3-----------3-(3)-|--------3--------|


                      1.

[Coda]

  7/8                 4/4
   S S E Q  E. S +E    E E Q  S S E Q    W
e|-------------------|-----------------|------||
B|-------------------|-----------------|------||
G|-------------------|-----------------|------||
D|---2---2--5--------|-2---2----2---2--|------||
A|---0---0--3--5-(5)-|-0---0----0---0--|------||
E|-3-----------3-(3)-|--------3--------|------||


[Interlude]

 w/Rhy Gig 1
   Gtr III
    S     S  S  S  S     S  S  S  S     S  S  S  S   S  S  S
e|-------17----------------------------17-------20p=17-------|
B|----------20p17-------17-20p17----------20p17--------20-17-|
G|-19b21----------19b21----------19b21-----------------------|
D|-----------------------------------------------------------|
A|-----------------------------------------------------------|
E|-----------------------------------------------------------|


    S     S  S  S  S  S  S  S  S  S  S  S  S   S  S  S
e|----------------20p17--------------------------------|
B|-------17-20p17-------20-17s16-17-20p17--------------|
G|-19b21----------------------------------19--17----17-|
D|-----------------------------------------------19----|
A|-----------------------------------------------------|
E|-----------------------------------------------------|


    S     S  S  S  S     S  S  S  S     S  S  S  Q
e|----------------------------------------------20b22------|
B|-------17-20p17-------17-20p17-------17-20p17------------|
G|-19b21----------19b21----------19b21---------------------|
D|---------------------------------------------------------|
A|---------------------------------------------------------|
E|---------------------------------------------------------|


    S  S  S  S  S  S  S  S  S     S  S  S  Q
e|-20p17-17-17-20p17---------------------------------||
B|-------------------20-17-------17-20p17-----------o||
G|-------------------------19b21----------19b22------||
D|---------------------------------------------------||
A|--------------------------------------------------o||
E|---------------------------------------------------||

   2.
    W                 W
e|------------------|------||
B|------------------|------||
G|------------------|------||
D|------------------|------||
A|------------------|------||
E|------------------|------||
 |
 |  E E Q  S S E Q    W
e|------------------|------||
B|------------------|------||
G|------------------|------||
D|--2---2----2---2--|------||
A|--0---0----0---0--|------||
E|---------3--------|------||


[Interlude 2]

w/Rhy Fig 2
                                    |----3-----|
   E     S  S      +S    S  E       E  E       E    E     E
e|-------17--------------17---------17---------17---------17---|
B|-20b22----20b22==(20)r----20b22------20b22--------20b22------|
G|-------------------------------------------------------------|
D|-------------------------------------------------------------|
A|-------------------------------------------------------------|
E|-------------------------------------------------------------|


                    |-----3------|
   S     S  E       E    E       E    E       S  S      +S    S  S     S
e|-------17---------17-----------17-----------17--------------17-------17--|
B|----------20b22--------20b22--------20b22----------------------20b22-----|
G|-19b21-----------------------------------------19b21==(19)r--------------|
D|-------------------------------------------------------------------------|
A|-------------------------------------------------------------------------|
E|-------------------------------------------------------------------------|


    S  S  S  S  S  S  S  S  S  S  S  S  S   S  S  S
e|-20p17----17-20p17--------------------------------|
B|-------20----------20-17-17-17-20p17-19-----------|
G|-------------------------------------19--17----17-|
D|--------------------------------------------19----|
A|--------------------------------------------------|
E|--------------------------------------------------|


              PM--------------------|
   S       S  S  S  S  S  S  S  E    E    Q      D.S. al Coda
e|------------------------------------------------||
B|------------------------------------------------||
G|-19b19.5-17-------------------------------------||
D|------------19-17----17-19-17-------------------||
A|------------------19----------19---17---15------||
E|------------------------------------------------||

   &
                    7/8                 4/4
   Gtrs I, II
   E E Q  S S E Q    S S E Q  E. S +E    H    H
e|-----------------|-------------------|-----------||
B|-----------------|-------------------|-----------||
G|-----------------|-------------------|------4----||
D|-2---2----2---2--|---2---2--5--------|-2----5----||
A|-0---0----0---0--|---0---0--3--5-(5)-|-0----5----||
E|--------3--------|-3-----------3-(3)-|------3----||

    4/4
     E S S +S  S E S E S Q    E S S +S  S E S E S Q
e|-------------------------|------------------------|
B|o------------------------|------------------------|
G|----------------------5--|---------------------7--|
D|--7---7-(7)---7---7---5--|-7---7-(7)---7---7---7--|
A|o-0---0-(0)---0---0------|-0---0-(0)---0---0------|
E|-------------------------|------------------------|


                          7/8
  E S S +S  S E S E S Q    E. S +E  E E E E  4x
e|------------------------|-------------------||
B|------------------------|------------------o||
G|---------------------5--|-------------------||
D|-7---7-(7)---7---7---5--|-7--5-(5)----------||
A|-0---0-(0)---0---0------|----------7-6-5---o||
E|------------------------|----------------8--||
                          |-Riff A         ---|

[Guitar Solo]

  4/4
   Gtr III
   S    S  S S  S    S  S S S    S  S S S    S  S S
e|------7------------7------------------------------|
B|--------10p7---------10p7------7-10p7------7-10p7-|
G|-9b11---------9b11--------9b11--------9b11--------|
D|--------------------------------------------------|
A|--------------------------------------------------|
E|--------------------------------------------------|
 |
 | Gtrs I, II
 | E       S S +S    S  E   S    E    S Q
e|--------------------------------------------------|
B|--------------------------------------------------|
G|--------------------------------------7-----------|
D|-9---------9-(9)------9--------9------7-----------|
A|-9---------9-(9)------9--------9------5-----------|
E|-7---------7-(7)------7--------7------------------|
 |-Rhy Fig 3

   S    S  S S  S    S  S S S    S  S S S    S  S S
e|--------------------------------------------------|
B|------7-10p7-------7-10p7------7-10p7------7-10p7-|
G|-9b11---------9b11--------9b11--------9b11--------|
D|--------------------------------------------------|
A|--------------------------------------------------|
E|--------------------------------------------------|
 |
 | E       S S +S    S  E   S    E    S Q
e|--------------------------------------------------|
B|--------------------------------------------------|
G|--------------------------------------9-----------|
D|-9---------9-(9)------9--------9------9-----------|
A|-9---------9-(9)------9--------9------7-----------|
E|-7---------7-(7)------7--------7------------------|


                                         7/8
    S S S S  S  S S S  S S S S S S  S S    Q        +E   +E   E E  E
e|-10p7-9p7-----7-9p7-10p7-9p7---7-10p7-|--------------------/7-7--7-|
B|-----------9-----------------9--------|-10b12====(10)r(10)---------|
G|--------------------------------------|----------------------------|
D|--------------------------------------|----------------------------|
A|--------------------------------------|----------------------------|
E|--------------------------------------|----------------------------|
 |
 |  E   S S +S  S E    S E   S Q           E.    S  +E    E   E E  E
e|--------------------------------------|----------------------------|
B|--------------------------------------|----------------------------|
G|-----------------------------7--------|----------------------------|
D|--9-----9-(9)---9------9-----7--------|--9-----7--(7)--------------|
A|--9-----9-(9)---9------9-----5--------|-----------------9---8-7----|
E|--7-----7-(7)---7------7--------------|-------------------------10-|

                         end Rhy Fig 3-|-Riff B           end Riff B-|

 4/4
w/Rhy Fig 3
             |------5-------|
  S  S S  S  S   S   S    S S S S  S S S S S S

e|-7-10p7-----7--10p==7----------------------------|
B|--------10--------------10-7-7-7-10-7------------|
G|--------------------------------------9-7-7-7----|
D|-------------------------------------------------|
A|-------------------------------------------------|
E|-------------------------------------------------|


   S S S S  S  S S S S S E   E E   S S E    S  S S S S S S S S S S S
e|-------------------------------|-----------------------------------|
B|-------------------------------|-----------------------------------|
G|-9p7---------------------------|-------------------------------7---|
D|-----9-7-----7-9-7-------------|---------------7-7-9p7-7-7-7-9---9-|
A|----------9--------9-7-5---5---|-----5----7s=9---------------------|
E|-----------------------------7-|-5h7-------------------------------|

  7/8
 w/Riff B
   E.   S     +S   E.     E       E     E
e|------------------------------------------|
B|-------------------------------------19---|
G|-9b11-9b11==(9)r-9b11---9b12\-/21b23------|
D|------------------------------------------|
A|------------------------------------------|
E|------------------------------------------|

  4/4
 w/Rhy Fig 3
    +S   E       S  S     S  S     S  S  S  S  S  S  S  S  S
e|-----------------------------------------------------------|
B|-(19)---------19-------19-------19-22-19----19-22p19-24p19-|
G|------21b23------21b23----21b23----------21----------------|
D|-----------------------------------------------------------|
A|-----------------------------------------------------------|
E|-----------------------------------------------------------|


    S  S  S  S  S   S  S  S  S  S  S  S  S  S  S  S
e|--------------------------------------------------|
B|-22-19----19-22p=19-24p19-22-19----19-22p19-24p19-|
G|-------21-----------------------21----------------|
D|--------------------------------------------------|
A|--------------------------------------------------|
E|--------------------------------------------------|


    S  S  S  S  S   S  S  S  S  S  S  S  S  S  S  S
e|--------------------------------------------------|
B|-22-19----19-22p=19-------------17----------------|
G|-------21-----------21-18s16-18----18-16-14-14-14-|
D|--------------------------------------------------|
A|--------------------------------------------------|
E|--------------------------------------------------|


  7/8
 w/Riff B
                             ~~~~~
    E.    S      +E    E     E     E     S  S
e|--------------------------------------------|
B|-17----17-----(17)--17----17----17----17-14-|
G|-16b18-16b18==(16)r-16b18-16b18-16b18-16-14-|
D|--------------------------------------------|
A|--------------------------------------------|
E|--------------------------------------------|


 4/4
w/Rhy Fig 3
                                      |----3-----|
   Q          +E.      +S   Q         S     +S   S  S  S

e|-22b24======(22)r====(22)-22b23-----21b22r(21)p19----19-|
B|--------------------------------------------------22----|
G|--------------------------------------------------------|
D|--------------------------------------------------------|
A|--------------------------------------------------------|
E|--------------------------------------------------------|


    S  S  S  S  S     S  S  S  S  S  S  S  S  S  S  S
e|-22p19----------------------------------------------|
B|-------22-19-------19-22p19-------------------------|
G|-------------21b23----------21-19----19-21p19-------|
D|----------------------------------21----------21-19-|
A|----------------------------------------------------|
E|----------------------------------------------------|


                PM-------------------|
                                         |--3--|
    S  S  S  S  S   S  S  S  S  S  S  S  E  E  E
e|-----------------------------------------------|
B|-----------------------------------------------|
G|-----------------------------------------------|
D|----19-21p19-----------------------------19-21-|
A|-21----------21--19-17-17-19-17-16-17s21-------|
E|-----------------------------------------------|


 7/8
w/Riff B
                                         |--3--|
   a  E.    S      +E    E      +E    E  S  S  S
e|------------------------------------19----14p12-|
B|------------------------------------------------|
G|-19h21b23-21b23==(21)r-21b23==(21)r-------------|
D|------------------------------------------------|
A|------------------------------------------------|
E|------------------------------------------------|



  4/4
 w/Rhy Fig 3
    T                  T           T        T          T          T
    |-------6-------|  |--------6--------|  |--------6---------|  |------6------|
    S  S S  S  S    S  S   S    S  S  S  S  S  S    S  S  S    S  S  S  S  S  S S
e|-17p14---17p14p==12-17p=14p==12-17p14p12-17p14p==12-17p14p==12-17p14p12---------|
B|------------------------------------------------------------------------17p14---|
G|--------------------------------------------------------------------------------|
D|--------------------------------------------------------------------------------|
A|--------------------------------------------------------------------------------|
E|--------------------------------------------------------------------------------|


                 |---3----|       |---3---|       |--3--|
    T  T  S S S  S   S    S  S S  S  S    S  S S  S  S  S  S S
e|-17p14-14-----17p=14p==12------17p14p==12----0-17p14p12----0--|
B|----------x-0-------------17-0------------17------------17----|
G|--------------------------------------------------------------|
D|--------------------------------------------------------------|
A|--------------------------------------------------------------|
E|--------------------------------------------------------------|


    |--3--|       |---3----|       |3-|
    S  S  S  S S  S   S    S  S S  S  E    S  S  S  S  S  S
e|-17p14p12----0-17p=14p==12----0-17p14------14-17p14-------|
B|----------17---------------17-----------17----------17-14-|
G|----------------------------------------------------------|
D|----------------------------------------------------------|
A|----------------------------------------------------------|
E|----------------------------------------------------------|


  7/8
 w/Riff B
    S   S  E    E     E     Q        +S   +S
e|----------------------------------------------|
B|-----14-17---17b19-17b19-17b19====(17)r(17)\--|
G|-16-------------------------------------------|
D|----------------------------------------------|
A|----------------------------------------------|
E|----------------------------------------------|


  4/4
 w/Rhy Fig 3
                                                                            ~
                                                              |-3-|
   E E       +Q       S E.   +E  S S       +S   S  S S  S  S  S S S S S S S E E
e|---------------------------------------|---------------------------------------|
B|---9b10====(9)r------------------------|------7-10p7-----7-10p7-------------9/-|
G|---9b11====(9)r-----7----------7-9b12==|=(9)r---------9---------9-7-9p7---7----|
D|----------------------9----(9)---------|--------------------------------9------|
A|---------------------------------------|---------------------------------------|
E|---------------------------------------|---------------------------------------|


                    |--3--|
    S  S  S  S  S   T  T  T  S  S  S     S  S  S  S  S  S  S
e|-------14--------14h17p14-----------------------------------|
B|-12s14----17p14-----------17-14-------14-17p14--------------|
G|--------------------------------16b18----------16-14-14-14--|
D|------------------------------------------------------------|
A|------------------------------------------------------------|
E|------------------------------------------------------------|


  7/8
 w/Riff B
    E.    S      +E    E      +E    S     +S   E
e|-----------------------------------------------|
B|-----------------------------------------------|
G|-16b18-16b18==(16)r-16b18==(16)r-16b18r(16)-14-|
D|-----------------------------------------------|
A|-----------------------------------------------|
E|-----------------------------------------------|


 4/4
w/Rhy Fig 3
                            ~~~~~
                                      |----3-----|
   Q          +E.      +S   Q         S     +S   S  S  S

e|-22b24======(22)r====(22)-22b23-----21b22r(21)p19-19-19-|
B|--------------------------------------------------------|
G|--------------------------------------------------------|
D|--------------------------------------------------------|
A|--------------------------------------------------------|
E|--------------------------------------------------------|


    S  S  S  S  S     S  S  S  S  S  S  S  S  S  S  S
e|-22p19----------------------------------------------|
B|-------22-19-------19-22p19-------------------------|
G|-------------21b22----------21-19-19-19-21p19-------|
D|----------------------------------------------21-19-|
A|----------------------------------------------------|
E|----------------------------------------------------|


                PM-------------------|
    S  S  S  S  S   S  S  S  S  S  S  S  S  S  S  S
e|---------------------------------------------------|
B|---------------------------------------------------|
G|---------------------------------------------------|
D|----19-21p19--------------------------------19-21--|
A|-21----------21--19-17-17-19-17-16-17-19s21--------|
E|---------------------------------------------------|

  7/8
 w/Riff B
    S   S  S  S  S   S  S  S  S  S  S  S  S  S
e|---------------------------------------------|
B|---------------------------------------------|
G|-19--19-21p19-19--19-21p19-21-19----19s20----|
D|---------------------------------21-18s19-21-|
A|---------------------------------------------|
E|---------------------------------------------|

  4/4
 w/Rhy Fig 3
    S  S  S  S   S   S  S  S  S  S  S  S  S  S  S  S
e|---------------------------------------------------|
B|-15-15-12----/13--16-13-14-17p14----15-18p15----16-|
G|----------13---------------------15----------16----|
D|---------------------------------------------------|
A|---------------------------------------------------|
E|---------------------------------------------------|

                                         ~~
    S  S  S  S  S   S  S  S  S  S  S  S  E  S  S
e|--------------------------------------------13-|
B|-19p16----17-20p=17----18-21p18----18-21-15----|
G|-------17-----------18----------18-------------|
D|-----------------------------------------------|
A|-----------------------------------------------|
E|-----------------------------------------------|

                                                     7/8
                                                    |-w/Riff B              ~~~~~~~~~~~~
    S  S  S  S  S   S  S  S  S  S  S  S  S  S  S  S    E.    S      +E    E      +Q     +E
e|-17p14----15-19p=16----16-20p17----18-21p18----19-|-22b24-22b24==(22)r-22b24==(22)r==(22)\---||
B|-------16-----------18----------20----------20----|------------------------------------------||
G|--------------------------------------------------|------------------------------------------||
D|--------------------------------------------------|------------------------------------------||
A|--------------------------------------------------|------------------------------------------||
E|--------------------------------------------------|------------------------------------------||


  4/4
   |--3--|
   S  S  S  S  S  S   S S  S  S  S  S  S  S  S  S  S
e|---------------------------------------------------|
B|---17-17-20p17-19p=17-x-17-22p17-20p17----17s16-17-|
G|---------------------------------------20----------|
D|---------------------------------------------------|
A|---------------------------------------------------|
E|---------------------------------------------------|
 |
 | E        S  S +S   S E     S  E     S  Q
e|---------------------------------------------------|
B|---------------------------------------------------|
G|----------------------------------------5----------|
D|-7-----------7-(7)----7--------7--------5----------|
A|-7-----------7-(7)----7--------7--------3----------|
E|-5-----------5-(5)----5--------5-------------------|
 |-Rhy Fig 4

    S  S  S  S  S   S  S  S  S  S  S  S  S  S  S  S
e|---------------------------------------------------|
B|-22p17-20p17-19p=17----17-22p17-20p17-19p17-17-17--|
G|--------------------20-----------------------------|
D|---------------------------------------------------|
A|---------------------------------------------------|
E|---------------------------------------------------|
 |
 |  E     S  S +S   S  E     S  E     S  Q
e|---------------------------------------------------|
B|---------------------------------------------------|
G|---------------------------------------7-----------|
D|--7--------7-(7)-----7--------7--------7-----------|
A|--7--------7-(7)-----7--------7--------5-----------|
E|--5--------5-(5)-----5--------5--------------------|


                                                     7/8
    S  S  S  S  S   S  S  S  S  S  S  S  S  S  S  S    H             Q.
e|--------------------------------------------------|-20b22---------20b20.5-----|
B|-22p17-20p17-19p=17----17-22p17-20p17-19p17-17-17-|---------------------------|
G|--------------------20----------------------------|---------------------------|
D|--------------------------------------------------|---------------------------|
A|--------------------------------------------------|---------------------------|
E|--------------------------------------------------|---------------------------|
 |
 |  E     S  S +S   S  E     S  E     S  Q             E.   S +E  E  E      E E
e|--------------------------------------------------|---------------------------|
B|--------------------------------------------------|---------------------------|
G|---------------------------------------5----------|---------------------------|
D|--7--------7-(7)-----7--------7--------5----------|--7----5-(5)---------------|
A|--7--------7-(7)-----7--------7--------3----------|-------------7--6------5---|
E|--5--------5-(5)-----5--------5-------------------|-------------------------8-|
                                     end Rhy Fig 4-|


  4/4
 w/Rhy Fig 4
    S  S  S  S  S   S  S  S  S  S  S  S  S  S  S  S
e|-20p17-17-17-20p=17-------------------------------|
B|--------------------20-17-17-17-20p17-------------|
G|--------------------------------------19-17----19-|
D|--------------------------------------------19----|
A|--------------------------------------------------|
E|--------------------------------------------------|

         |---3---|
   S  S  S  S    S  S   S  S  S  S  S  S  S  S  S  E
e|-------------------------------------------------------|
B|-------------------------------------------------------|
G|-17-17-17h19p==17--------------------------------------|
D|------------------19--17----17-19p17-------------------|
A|-------------------------19----------19-17-15----------|
E|----------------------------------------------17-17b18-|

    S  S  S  S  E     S  S  S  S  S  S  S  S  S  S
e|-------------------------------------------------|
B|----------------------------------------------17-|
G|----------------------------------------17-19----|
D|-------------------17-17-19p17----17-19----------|
A|-------15-17s19----------------19----------------|
E|-15-17-------------------------------------------|


 7/8
w/Riff A x3
   |--3---|                                    |--3--|
   S   S  S  S  S  S   S  S  S  S  T  T  S  S  S  S  S
e|------------------------20p17-------------------------|
B|-20--17s16-20p17-20p=17-------20-17-17-17-20-17s16-17-|
G|------------------------------------------------------|
D|------------------------------------------------------|
A|------------------------------------------------------|
E|------------------------------------------------------|


   |--3--|  |---3---|
   S  S  S  S  S    S  S   S  S  S  S  S  S     S  S  S
e|-------------------------------------------------------|
B|-20p17----------------------------------------17-20p17-|
G|-------19-17-17---17-19--17----17-19-17-19b21----------|
D|----------------------------19-------------------------|
A|-------------------------------------------------------|
E|-------------------------------------------------------|


   |--3--|  |---3---|
   S  S  S  S  S    S  S   T  T  S  S  S  S  S  S  S  S
e|-20p17--------------------------------------------------|
B|-------20-17-17---17-20p=17-17--------------------------|
G|-------------------------------19-17-17-17-19p17-17-17--|
D|--------------------------------------------------------|
A|--------------------------------------------------------|
E|--------------------------------------------------------|


                        H.=H
  4/4
    Q      Q      Q      Q        Q      Q      Q      Q
e|-----------------------------|-----------------------------|
B|-20-----20-----20-----20-----|-20-----20-------------------|
G|-19b21--19b21--19b21--19b21--|-19b21--19b21--19b21--19b21--|
D|-----------------------------|-----------------------------|
A|-----------------------------|-----------------------------|
E|-----------------------------|-----------------------------|
 |
 |  TP                            TP
 |  W                            +W
e|-----------------------------|-----------------------------|
B|-----------------------------|-----------------------------|
G|-----------------------------|-----------------------------|
D|--7--------------------------|-(7)-------------------------|
A|--7--------------------------|-(7)-------------------------|
E|--5--------------------------|-(5)-------------------------|


                             Q=160
    W              W            Q      q     H
e|--------------|------------|--------------------*|
B|-20-----------|------------|-20-----20----------*|
G|-19b21--------|------------|-19b21--19b21-------*|
D|--------------|------------|--------------------*|
A|--------------|------------|--------------------*|
E|--------------|------------|--------------------*|
 |
 | +W             +W            Q      Q     H
e|--------------|------------|--------------------*|
B|--------------|------------|--------------------*|
G|--------------|------------|--------------------*|
D|-(7)----------|-(7)--------|--7------7----------*|
A|-(7)----------|-(7)--------|--7------7----------*|
E|-(5)----------|-(5)--------|--5------5----------*|


 
************************************

| (n)  Ghost note
| p    Pull-off
| b    Bend
| h    Hammer-on
| ~    Vibrato
| /    Slide up
| \    Slide down
| x    Dead note
| tp   Tremolo
| *    Natural harmonic
| .    palm mute
| s    slide

************************************

            
            
Suggest correction
Creating personal tab
Creating personal tab
You can edit any tab online and save it as your Personal.

You can edit, replace or remove any tab part or add personal notes – all changes will be seen only by you.

Personal tabs can be accessed anytime from any device, even offline.
Learn more »
Give kudos to tab author, rate the tab!
1 2 3 4 5
comments
print report bad tab
1 comment total.
0 reply
GNR Rule 564 Jan 03, 2016 06:04 PM

This is a tab for Metallica - Hit the Lights, not a Mortal Sin song. Tab is accurate for HTL though

guest
You may want to rate the tab now too:
select rating
Wanna post a correction for this tab? Suggest correction