Oops, an error
Loading. Please wait.

A Walk Thru The Woods intro tab

983 views 1 this week
4 commentsread comments
1 2 3 4 5
x 4
add to favorites
×
Save as Personal and add changes to this tab that will be seen only by you. Learn more ›
×
You can save this tab as Personal to edit and correct it or add notes. All changes will be seen only by you. Learn more »
launch autoscroll
font size
0
reset
how to read this tab
guitar tuner
edit
Autoscroll
slow
fast
+/-
esc
set tempo
stop
Author
||--------------------------------------------------------------|
||--------------------------------------------------------------|
||--------------------------------------------------------------|
||-----7----7-----7----7----8----7------------------------------|
||---0----0----------0----0-------------------------------------|
||-0----0-----0----0----0----0----------------------------------|

||--------------------------------------------------------------|
||--------------------------------------------------------------|
||--------------------------------10-9--------------------------|
||---------------------------10--------10-9-7-------------------|
||-0--0-0-0--5-3-2-3--8--8-8-8----------------8-7---------------|
||-0--0-0-0--5-3-2-3--8--8-8-8----------------------------------|
      . .    . . . . 
||--------------------------------------------------------------|
||--------------------------------------------------------------|
||--------------------------------------------------------------|
||--------------------------------------------------------------|
||-0-0-0-0---------0-0-0----------------------------------------|
||-0-0-0-0---------0-0-0----------------------------------------|
   . . . .         . . .
||--------------------------------------------------------------|
||--------------------------------------------------------------|
||--------------------------------------------------------------|
||--------------------------------------------------------------|
||-85858585858585857676767676767676-----------------------------|
||-------------------------------------------------------------|

            
            
Suggest correction
Creating personal tab
Creating personal tab
You can edit any tab online and save it as your Personal.

You can edit, replace or remove any tab part or add personal notes – all changes will be seen only by you.

Personal tabs can be accessed anytime from any device, even offline.
Learn more »
comments
print report bad tab
4 comments total. Showing first comments.
0 reply
tayluh 31 Feb 27, 2007 05:32 PM

well...i dont know what to say...nice try i guess

0 reply
Rob the Tipton 141 Apr 17, 2007 12:40 PM

this is pretty bad..

0 reply
xxplaguesxx 10 Dec 17, 2007 02:07 PM

well After the heavy palm..it not how you have it...how you have it doesn't sound as
g00d.

try.
||-----|
||-----
-----|
||-----9h8-----|
||-----
-----9h8--10-(10)-----|
||-0--0-0-0--5-3-2-3--8--
8-8-8-----|

||-0--0-0-0--5-3-2-3--8--
8-8-8-----|
. . . . . .

guest
You may want to rate the tab now too:
select rating
Wanna post a correction for this tab? Suggest correction