Oops, an error
Loading. Please wait.

Necrocannibal Bass Tab

version 1
version 1

Whole song

Interactive

783 views 3 this week
no commentswrite comment
1 2 3 4 5
3 more votes to show rating
add to favorites
launch autoscroll
font size
0
reset
guitar tuner
Autoscroll
slow
fast
+/-
esc
set tempo
stop
Help us to improve Ultimate-Guitar.com Take our survey!
×
Author
Difficulty
Tuning
intermediate
A E A D F# B
Song: Necrocannibal
Band: Mortician
Album: Mortal Massacre
Transcribed By: Ziggy

D|---------------|----|---------|
A|---------------|----|---------|
E|---------------|--0-|---------|
A|--0000-3--5--6-|----|---------|

D|-----------------------------|
A|-----------------------------|
E|--0-0-0-0-5--4---------------|
A|----------------0-0-0-0-4--5-|

D|---------------------------|
A|---------------------------|
E|--000000-5--4--------------|
A|---------------000000-4--5-|

D|---------------------------------------------------|
A|---------------------------------------------------|
E|--000000333333444444-------------------------------|
A|--------------------333333111111111111000000000000-|

D|---------------------------------------------------|
A|---------------------------------------------------|
E|--000000333333444444-------------------------------|
A|--------------------333333111111111111-0-----------|

D|---------------------------------------------------|
A|---------------------------------------------------|
E|--2-----5-----6------------------------------------|
A|--------------------5-----3------------2-----------|

D|-------------------------------------------------|
A|-------------------------------------------------|
E|--2--0-0-5-5-6-6---------------------------------|
A|-----------------5--3-3-3--1-1-3--3--2--0-0-2--2-|

D|----------------------------------|
A|----------------------------------|
E|----------------------------------|
A|--0-0-0-0-3-0-0-0-0-0-0-0-0-0-4-3-|

D|-----|
A|-----|
E|--2--|
A|-----| 

Tips n Tricks: This Song Is Pretty Faster For Fellow Finger Players 
Like Myself Unless Your Get Yourself Up To Speed Another Hint 
The Bass Uses A Metal Distortion Pedal
Suggest correction
Give kudos to tab author, rate the tab!
1 2 3 4 5
comments
print report bad tab
guest
You may want to rate the tab now too:
select rating
Wanna post a correction for this tab? Suggest correction