Oops, an error
Loading. Please wait.

Ripped In Half Bass Tab

version 1
version 1

Whole song

Interactive

401 views 1 this week
no commentswrite comment
1 2 3 4 5
please rate
add to favorites
launch autoscroll
font size
0
reset
guitar tuner
Autoscroll
slow
fast
+/-
esc
set tempo
stop
Help us to improve Ultimate-Guitar.com Take our survey!
×
Author
Difficulty
novice
-------------------------------------------------------------------------------
			     Ripped In Half - Mortician
-------------------------------------------------------------------------------

Tabbed By:Ziggy 
e-mail:xxnapalmchildxx@yahoo.com 

Tuning:Dropped A

D|-----------------|----------------|
A|-----------------|----------------|
E|-4-3-------------|4-3-------------|
A|-----4-5-2-------|----4-5-1-------|

D|-----------------|----------------|----------------|----------------|
A|-----------------|----------------|----------------|----------------|
E|-44443333--------|44443333--------|44443333--------|44443333--------|
A|---------44445555|--------44445555|--------44445555|--------44445555|

D|-----------------|----------------|
A|-----------------|----------------|
E|-4-3-------------|4-3-------------|
A|-----4-5-2-------|----4-5-1-------|



| /  slide up
| \  slide down
| h  hammer-on
| p  pull-off
| ~  vibrato
| +  harmonic
| x  Mute note
===============================================================================
Suggest correction
Give kudos to tab author, rate the tab!
1 2 3 4 5
comments
print report bad tab
guest
You may want to rate the tab now too:
select rating
Wanna post a correction for this tab? Suggest correction