Oops, an error
Loading. Please wait.

Que Puedo Yo Pensar Tab

11 views 1 this week
no commentswrite comment
1 2 3 4 5
3 more votes to show rating
add to favorites
launch autoscroll
font size
0
reset
how to read this tab
guitar tuner
×
Best way to learn
"Que Puedo Yo Pensar"
Autoscroll
slow
fast
+/-
esc
set tempo
stop
kevin kev95
[ch]A cancion usa (D A Bm G[/ch])

E ---------------------------------------------------------------
B ---------------10--10------------------------------------------
G ---------7--7---------------9--9-------10-10-------7--7--------
D -----------------------7--7-------9--9-------5-5-5-------------
A ---------------------------------------------------------------
E ---------------------------------------------------------------

puente

E----------------------------------------------------------
B---------7-7-7-7-7-7-7-7 --10-8-7--7-7-7-7-7-7-7-7--8-7---
G----------------------------------------------------------
D----------------------------------------------------------
A----------------------------------------------------------
E----------------------------------------------------------

lo repite X2 y la segunda ves es  7-7-7-7-7-7-7-7p8
Suggest correction
Give kudos to tab author, rate the tab!
1 2 3 4 5
comments
print report bad tab
guest
You may want to rate the tab now too:
select rating
Wanna post a correction for this tab? Suggest correction