Oops, an error
Loading. Please wait.

Tu Eres Dios Tab

15 views 1 this week
no commentswrite comment
1 2 3 4 5
3 more votes to show rating
add to favorites
launch autoscroll
font size
0
reset
how to read this tab
guitar tuner
Autoscroll
slow
fast
+/-
esc
set tempo
stop
Help us to improve Ultimate-Guitar.com Take our survey!
×
bueno mucha, los dejo con un excelente grupo de bendición de
chapinlandia jeje....
Mucha miren, esta kncion va en quintas pero si qieren pueden hacerla
en mayores. pero les aconsejo las quintas.... las pondre hasta abajo

   INTRO:

E -----------------|--------------|--------------|------------------
B -----------------|--------------|--------------|------------------
G ----------2------|--------------|--------------|------------------
D ------4-------0--|----2---4---0-|--------2---0-|----------2-----0-
A ----2---2---2----|--0---0---0---|----4---------|-----5------------
E -----------------|--------------|--2---2---2---|--3-----3----3----

E -----------------|--------------|--------------|------------------
B -----------------|--------------|--------------|------------------
G ----------2------|--------------|--------------|------------------
D ------4-------0--|----2---4---0-|--------2---0-|----------2-----0-
A ----2---2---2----|--0---0---0---|----4---------|-----5------------
E -----------------|--------------|--2---2---2---|--3-----3----3----

B5                  A5                F#5
    YO ANDO EN MI CAMINO BUSCANDO UN AMIGO
     G5
(que me entendiera y comprendiera hoy)
B5                  A5                  F#5
    SIN TI YO ESTUVIERA PERDIDO EN ESTA VIDA
     G5         A5
(por eso digo hooooy)


    CORO

   D5                   A5
TU ERES DIOS, MI SALVADOOOOOR
         B5           G5
TU HIJO SOY, TE ADORARE


D5                   A5
TU ERES DIOS, MI SALVADOOOOOR
         B5           G5
TU HIJO SOY, TE ADORARE


E -----------------|--------------|--------------|------------------
B -----------------|--------------|--------------|------------------
G ----------2------|--------------|--------------|------------------
D ------4-------0--|----2---4---0-|--------2---0-|----------2-----0-
A ----2---2---2----|--0---0---0---|----4---------|-----5------------
E -----------------|--------------|--2---2---2---|--3-----3----3----


B5                  A5                F#5
    YO ANDO EN MI CAMINO BUSCANDO UN AMIGO
     G5
(que me entendiera y comprendiera hoy)
B5                  A5                  F#5
    SIN TI YO ESTUVIERA PERDIDO EN ESTA VIDA
     G5         A5
(por eso digo hooooy)


    CORO

   D5                   A5
TU ERES DIOS, MI SALVADOOOOOR
         B5           G5
TU HIJO SOY, TE ADORARE


D5                   A5
TU ERES DIOS, MI SALVADOOOOOR
         B5           G5
TU HIJO SOY, TE ADORARE


   -F#5 -G5 -F#5 -A5

D5                   A5
TU ERES DIOS, MI SALVADOOOOOR
         B5           G5
TU HIJO SOY, TE ADORARE

D5                   A5
TU ERES DIOS, MI SALVADOOOOOR
         B5           G5
TU HIJO SOY, TE ADORARE

   B5  A5   F#5   G5


E -----------------|--------------|--------------|------------------
B -----------------|--------------|--------------|------------------
G ----------2------|--------------|--------------|------------------
D ------4-------0--|----2---4---0-|--------2---0-|----------2-----0-
A ----2---2---2----|--0---0---0---|----4---------|-----5------------
E -----------------|--------------|--2---2---2---|--3-----3----3---- X4

   B5     A5      F#5     G5      D5
E -X-   E -X-   E -X-   E -X-   E -X-
B -X-   B -X-   B -X-   B -X-   B -X-
G -4-   G -X-   G -X-   G -X-   G -7-
D -4-   D -7-   D -4-   D -5-   D -7-
A -2-   A -7-   A -4-   A -5-   A -5-
E -X-   E -5-   E -2-   E -3-   E -X-
Suggest correction
Give kudos to tab author, rate the tab!
1 2 3 4 5
comments
print report bad tab
guest
You may want to rate the tab now too:
select rating
Wanna post a correction for this tab? Suggest correction