Oops, an error
Loading. Please wait.

A Ti Tab

by Motel
23 views 3 this week
no commentswrite comment
1 2 3 4 5
3 more votes to show rating
add to favorites
launch autoscroll
font size
0
reset
how to read this tab
guitar tuner
Autoscroll
slow
fast
+/-
esc
set tempo
stop
Esta tablatura se la dedico a Leticia padilla
que se que aunque ella no podra verla
se la dedico con todo el corazón
pues a ocupado gran parte de el,
pero para la raza que le gusta motel espero y les sirva.
dure un buen en subirla porque soy lento en la computadora
pero espero y la califiquen porque quiero saber
que opina la raza de mis tablaturas  bueno esperando y les ayude
en algo me despido y les mando un saludo
de parte de su amigo yeyo el?medusa?de escuinapa Sinaloa
a y también tengo tab d nirvana,ska-p,dos minutos
una de platero y tu la de entre dos mares y otras
por si les interesa nada mas mandende un mensaje a mi correo
que es reggaebob182@ bueno la vemos luego raza
los dejo con esta rola disfrutenla

Intro : 1er guitarra rasgando solamente las notas que son
       D Am7 Em7 G A

       2da guitarra arpegiando las mismas notas
       D             Am7                 Em7                G      A
E |-2--------------------0---0---------------------0------3--------0---|
B |---3-------3--------1---1---1-------------3-------3------0------3---|
G |-----2---2-------0------------0---------0-----0-----0------0----2---|
D |-------0-------2----------------2-----0-----0----------------0--1---|
A |------------------------------------2---------------------------0---|
E |--------------------------------------------------------------------|

 VERSO 1

D           Am7
el tiempo vuela
         Em7
y es el pasado el que regresa
     G            A           D
descubriendo las heridas del ayer
          Am7
y en sus rincones
         Em7
vienen visiones y promesas
       G      A              Bm/B
de esa luz e imagen que solia ser

VERSO 2
              Bm7/E
Y el juego comienza
         G
Y es el corazón el que tropieza
       F#7                      Bm/B
Por dejarse amar se deja controlar
                Bm7/E
Y entrego mi esencia
               G
Abriendo las puertas a mi espacio
A                 D
Y a mi realidad

CORO :
                 F#7
Escucho lo que dices
                 Bm/A
Pero el pasado lleva cicatrices
       G            A              D
Que solo el tiempo me podra curar
                   F#7
Y escucha cuando digo
                 Em7       G  A
Que solo quiero amaaarte
    D Am7 Em7 G A
A ti
En esta parte va un pequeño solo que va mas o menos así
E  |--13-15-9-7---2-3-10---7-5---9-------10--------------------|
B  |---------------------------7-----6-7-----------------------|
Empieza de nuevo la guitarra pero ahora varia el DM
pero colocando el dedo meñique en el 3er traste
de la primera cuerda y quitandolo antes de que termine el compas

D            Am7
Entre temores
         Em7
Nos encontramos uno al otro
         G          A               D
Entre cielos que quisieramos volar
            Am7
Y entre razones
           Em7
nos enfrentamos uno al otro
         G               A            Bm/B
y es el sueño que hoy llamamos realidad
                  Bm7/E
que quiero entenderte
               G
soñarte y llevarte simplemente
         A                         Bm/B
hasta recordar el tiempo a la verdad
                       Bm7/E          G
y quiero escucharte mirarte y llenarte
               A                   D
en cada instante y cada despertar

CORO :
                F#7
Escucho lo que dices
                Bm      A
Pero el pasado lleva cicatrices
     G               A             D
Que solo el tiempo me podra curar
                 F#7
Y escucha cuando digo
                  Em7     G  A
Que solo quiero amaaarte
      D
A ti
               F#m
Escucho lo que dices
                Bm     A
Pero el pasado lleva cicatrices
    G               A               D
Que solo el tiempo me podra curar
                 F#7
Y escucha cuando digo
                Em7      G/A
Que solo quiero amaaarte

a ti  Y TERMINA D Am7 Em7 G A Y CON EL REQUINTILLO
E  |--13-15-9-7---2-3-10---7-5---9-------10--------------------|
B  |---------------------------7-----6-7-----------------------|


La segunda guitarra solo en G y Fs7 para que vean en donde entra
arpegiando y va en G en el primer verso
      G                 F#7
E  |----------3-----------------2---------------------------------------|
B  |------0-------0---------0-------0-----------------------------------|
G  |----0---0---0---0-----0---0---0---0---------------------------------|
D  |--------------------------------------------------------------------|
A  |--------------------------------------------------------------------|
E  |--3-----------------2-----------------------------------------------|

Y después varia en el arpegiado y va de esta manera
      G                A
E  |---------------------------0----------------------------------------|
B  |------0------0---------2-------2------------------------------------|
G  |----0---0--0---0-----2---2---2---2----------------------------------|
D  |--------------------------------------------------------------------|
A  |-------------------0------------------------------------------------|
E  |--3-----------------------------------------------------------------|

ESTO SE REPITE EN LOS COROS CHEQUENLO BIEN
Y cae en D en la parte que les digo del dedo meñique que va así
       D              F#7         Bm/A                          G  A
E  |--------2-3-2-0----2------2-----------------------------------------|
B  |--3---3------------2----2-----2/3-2/3-2/3-2/3-2/3-2/3-2/3-0---------|
G  |----2--------------3--3---------------------------------------------|
D  |-------------------2------------------------------------------------|
A  |-------------------4------------------------------------------------|
E  |-------------------2------------------------------------------------|
Suggest correction
Give kudos to tab author, rate the tab!
1 2 3 4 5
comments
print report bad tab
guest
You may want to rate the tab now too:
select rating
Wanna post a correction for this tab? Suggest correction