Oops, an error
Loading. Please wait.

Aparador Tab

by Motel
17 views 3 this week
no commentswrite comment
1 2 3 4 5
3 more votes to show rating
add to favorites
×
Save as Personal and add changes to this tab that will be seen only by you. Learn more ›
×
You can save this tab as Personal to edit and correct it or add notes. All changes will be seen only by you. Learn more »
save as personal
new!
launch autoscroll
font size
0
reset
how to read this tab
guitar tuner
Autoscroll
slow
fast
+/-
esc
set tempo
stop
Saludos a la banda MOTEL, en especial a Gloria Anele y Alma Lucero
desde puebla capital.

En este caso la guitarra en el intro minuto 0:00 y 1:39 empieza
con bemol (D# o Db) en la sexta osea un medio tono atras de E o mi
solo en la sexta cuerda.

      0:00
    e |------------------------------------|
    B |------------------------------------|
G1  G |------------------------------------| x4
    D |------------------------------------|
    A |------------------------------------|
   D# |-4444444444-777777-1111111-2222-77--|

0:07_______________________________________0:30

   e |---------------------------|
   B |---------------------------|
G2 G |---------------------------| x2
   D |-55-55-55-88-22-22-22--88-5|
   A |---------------------------|
   E |---------------------------|

   e |-----------------------------|
   B |-----------------------------|
G2 G |-----------------------------|
   D |-55-55-55-88-22-22-22-888-5~-|
   A |-----------------------------|
   E |-----------------------------|

      0:42
   e |-----------------------------|
   B |-----------------------------|
G2 G |-----------------------------|
   D |-55-55-55-88-22-22-22-888-5~-|
   A |-----------------------------|
   E |-----------------------------|

      0:56
   e |----------------------------|
   B |----------------------------|
G2 G |----------------------------|
   D |-5s88s2vs8s5-s8s10----------|
   A |----------------------------|
   E |----------------------------|

1:04          1:07
   E |---|       E |---|
   B |---|       B |---|
   G |-5-|C5     G |-8-|D#5
   D |-5-|       D |-8-|
   A |-3-|       A |-6-|
   E |---|       E |---|

                                     C5
que estoy contigo hasta la muerte y más
             D#5
hasta alcansarte
C5                     D#5
caigo en un momento y siento que no puedo hablar

      1:19
   e |----------------------|
   B |-8v8v10v1011v-11v-11v-|
   G |----------------------|
   D |----------------------|
   A |----------------------|
   E |----------------------|
          C5
y en el reflejo de tu cuerpo me pierdo

y solo quiero llegar hasta tu centro
  D#5
y verte adentro una vez mas
  C5
para decirte que tu amor es un juego y ya lo quiero jugar

     1:39
   e |------------------------------------|
   B |------------------------------------|
G1 G |------------------------------------| x4
   D |------------------------------------|
   A |------------------------------------|
  D# |-4444444444-777777-1111111-2222-77--|

     1:46
   e |---------------------------|
   B |---------------------------|
   G |---------------------------|
   D |-55-55-55-88-22-22-22-8-5~-|
   A |---------------------------|
   E |---------------------------|

     1:55
   e |---------|
   B |---------|
   G |---------|
   D |-5s2s5s8-|
   A |---------|
   E |---------|

   e |---------------------------|
   B |---------------------------|
   G |---------------------------|
   D |-55-55-55-88-22-22-22-8-5~-|
   A |---------------------------|
   E |---------------------------|

      2:43
   e |------11-10-------|
   B |-8-10--------11-8-|
   G |------------------|
   D |------------------|
   A |------------------|
   E |------------------|

   e |------11-10--13-9-|
   B |-8-10-------------|
   G |------------------|
   D |------------------|
   A |------------------|
   E |------------------|

   e |------11-10-----13-11-10-8-|
   B |-8-10-------11-------------|
   G |---------------------------|
   D |---------------------------|
   A |---------------------------|
   E |---------------------------|


   e |------11-10-------|
   B |-8-10--------11-8-|
   G |------------------|
   D |------------------|
   A |------------------|
   E |------------------|

   e |------11-10-------8-|
   B |-8-10--------11-----|
   G |--------------------|
   D |--------------------|
   A |--------------------|
   E |--------------------|


      3:28
   e |-------------------------|
   B |-------------------------|
G1 G |-10-12-10-12-10-12-10-12-| x4
   D |-------------------------|
   A |-------------------------|
   E |-------------------------|


   e |-13-15-13-15-13-15-13-15v-|
   B |--------------------------|
G1 G |--------------------------| x3
   D |--------------------------|
   A |--------------------------|
   E |--------------------------|
Algun comentario
mark_admon_x@
Suggest correction
Give kudos to tab author, rate the tab!
1 2 3 4 5
comments
print report bad tab
guest
Wanna post a correction for this tab? Suggest correction