Oops, an error
Loading. Please wait.

Que Vas A Hacer Tab

11 views 1 this week
no commentswrite comment
1 2 3 4 5
3 more votes to show rating
add to favorites
launch autoscroll
font size
0
reset
how to read this tab
guitar tuner
×
Best way to learn
"Que Vas A Hacer"
Autoscroll
slow
fast
+/-
esc
set tempo
stop
Hola aquí con la tablatura de esta cancion, un saludo
A los strokeberrys jajaja en especial a jerry, jaque zlach
Y diAco jajja sigan chavos atte. Martin armenta beltran
Si tienen alguna duda mi correo es KOBE_8_7

Esta cancion se toco con dos liras guitarras
Una hace el acompañamiento G1 y otra hace los
Riff y solos y punteos G2 ok

G1.-guitarra de acompañamiento
(tocas los acorde que estan arriba del tab.- Rodrigo davila
G2.-guitarra de solos , riff y punteos G2.- Billi mendez

INTRO: son dos veces una sin cantar y lo otra con la letra we

       Am                  G                  D
E--------------------------------------------------------------------
B--------------pm----------------------------------------------------
G-5-5-5-5-5-(x2)-4-4-4-4-4(x2)-------------------------------------
D-----------------------------5-5-5-5-4-4-4-4------5-5-5-5-4-4-4-4-5-5-5
A---------------------------------------------5-5-5--------------------
       Am       G                     D
E------------------------------------------------------------------
B-----------------pm---------------7-7-7-7-8-8-8-7-7-7-7-7-8-8-8-7-
G5-5-5-5-5(x2)------4-4-4-4-4(x2)--7-7-7-7-7-7-7-7-7-7-7-7-7-7-7-7-
D-------------------------------------------------------------


Esto lo haces dos veces         RIFF A
        Am        G                 D
E------------------------------------------------------------
B-----------------------------7-7-7-7-8-8-8-7-7-7-7-7-8-8-8-8-7
G----5-5-5-5-4-4-4-4------7-7-7-7-7-7-7-7-7-7-7-7-7-7-7-7-7-7-7
D--------------------------------------------------------------

Luego si que el pre-coro NOTA.-el punteo los haces en do y en re tambien
    C                                    se repite dos veces
E----------------------------------------------------------------
B---------------8-8-7-7-5-5--------5-5-5--------------------------
G----------------------------7-7-7---------7-7-7----5-5-5---------
D----------5-5------------------------------------------------------
     D
E-------------------------------------------------------------
B---------------8-8-7-7-5-5--------5-5-5----------------------
G----------------------------7-7-7---------7-7-7----5-5-5----
D----------5-5-------------------------------------------------

AHORA SIGUE EL CORO .- pero son puros ragueos o sea no hay ningun punteo
Haci que mejor no puse los ragueos pero los tonos
son  Am C - G y se repite ojo
Dura mucho ragueando en los tonos we  son la do y sol.-

Y se repite todo el tab o sea se vuelve a repetir la cancion
(los adornos o arreglos que siguen
Estan arriba lo unico es que comienza el
intro y luego cuando canta hace
 el riff  A varias veces
We  luego sigue el precoro que esta arriba y
 luego el coro luego del coro sigue mi parte favorita
Que es el solo checate we billi tiene la maña por
si no te has dado cuenta golpear mucho una nota
We es por eso que repito mucho algunos numeros we haci
 que ahí les va:
SOLO:2:29 NOTA.-los acordes del solo son igual
           que el intro pero los
           Cambios de un tono a otro son rapido we sale ojo
           Dale bien los tiempo por que esta difícil poner el
           Acorde en la nota exacta sorry.

         Am      G          D
E--------------------------------------------------------------
B----------------5-5-5-7-7-7-8-8-8-8-8-8-7-7-7-8-8-8-10-10-(x5)-
G----5-5-5-7-7-7-----------------------------------------------

       Am            G               D
E------------------------------------------------------------------
B13-13-13-12-12-12-12-10-10-10-10-10-12-12-12-10-12-8-8-8-8-7-7-5-7-

       Am       G       D
E------------5-5-7-7-8-8-10-10-12-12-14-14-12-12-14-14-12-14-14-14-14
B-5-5-7-7-8-8-------------------------------------------------------

        Am               G              D
E-15-15-14-14--------14-14--------14-14--------14-14------------------
B------------17-17--------15-15--------15-15--------15-15-15-15-15-15bb

CORO: Am C - G varias veces

FINAL.- igual que el intro pero en la segunda parte termina en sol o G

TIPS.-
1.- la cancion esta armonizada en sol o G
que quiere decir esto que el solo
Y los arreglos en estan en la escala de
sol aunque el comienze en la menor ok.
2.-excucha la cancion pronto subire en 
el video de cómo la tocamos
3.- la notas estoy seguro que estan al 100% lo que
 pasa es que hay que darle el ritmo
A las notas pero como dije escucha la cancion y veras
 que se ´parese ok.
4.-algo muy importante es que como dije en el solo billi
 golpea mucho cada nota
5.-para que salga chida a tu guitarra ponle el efecto
 distorsión para que se esche chido
6.-hay algunos punteos de la cancion que casi no se
escucha we
7.-otra cosa muy importante en el coro aunque paresca
raro se pasa a la mayor we
No a la menor y luego se pasa a do mayor y luego a sol
si escucha bien vas a notar
Que se escucha diferente we no vallas a creer que me equivoque.
8.- por ultimo pon buena calificación por que esta rola
es chida y esto es lo mejor que
Pude sacar con estos riff y punteos y solos te va salir
chida la rola creo que no hace
Falta ni un riff creo.- nota si tienes alguna duda
o comentario o lo que sea mi correo
Kobe_8_7

           atte.- martin armenta beltran jajaja arriba los strokeberry
                                          jajajaj
Suggest correction
Give kudos to tab author, rate the tab!
1 2 3 4 5
comments
print report bad tab
guest
You may want to rate the tab now too:
select rating
Wanna post a correction for this tab? Suggest correction