Oops, an error
Loading. Please wait.

Chloe Dancer Crown Of Thorns Tab

version 3
version 3

Whole song

Interactive

32,798 views 54 this week
6 commentsread comments
1 2 3 4 5
x 20
add to favorites
×
Save as Personal and add changes to this tab that will be seen only by you. Learn more ›
×
You can save this tab as Personal to edit and correct it or add notes. All changes will be seen only by you. Learn more »
save as personal
new!
launch autoscroll
font size
0
reset
how to read this tab
guitar tuner
Autoscroll
slow
fast
+/-
esc
set tempo
stop
Author
Difficulty
Tuning
intermediate
D# G# C# F# A# D#
(piano transcribed for guitar)

    Asus4                   Bm7+11      Dsus2
Eb|-------------0--------------------0--------0----|
Bb|-------3--------3-----3--------3--------------3-|
Gb|----2-----2--------2--------2-----------2-------|
Db|-------------------------------------0----------|
Ab|-0-----------------------2----------------------|
Eb|------------------------------------------------|

    G6sus2
  |-------------0-----------------------0----------|
  |-------3--------3-----3--------3--------3-----3-|
  |----2-----2--------2--------2-----2--------2----|
  |------------------------------------------------|
  |------------------------------------------------|
  |-3-----------------------3----------------------|


These two measures repeat throughout the entire song, until the end,
when the last measure repeats once.

Lyrics:

Chloe don't know better
Chloe's just like me
only beautiful
a couple of years difference
but those lessons never learned
and you know
Chloe danced the tables
in the french quarter
she's always been given
so I can't always make her laugh
but I'm proud to say
and I won't forget
time spent laying by her side
time spent laying by her side
dreams like this must die
and a dream like this must die
dreams like this must
die

[ to Crown of Thorns ]
Suggest correction
comments
print report bad tab
6 comments total. Showing first comments.
+4 reply
hoon4 60 Jun 07, 2007 12:22 PM

excellent job man.. perfect tab ..beautiful song

+1 reply
2girls1cup 72 May 09, 2009 09:26 AM

sounds good!

0 reply
Pharmdoc007 10 Oct 23, 2015 04:46 AM

NICE ONE BROCHATCHO

guest
You may want to rate the tab now too:
select rating
Wanna post a correction for this tab? Suggest correction