Oops, an error
Loading. Please wait.

Gentle Groove tab

1,325 views 1 this week
1 commentread comment
1 2 3 4 5
2 more votes to show rating
add to favorites
×
Save as Personal and add changes to this tab that will be seen only by you. Learn more ›
×
You can save this tab as Personal to edit and correct it or add notes. All changes will be seen only by you. Learn more »
launch autoscroll
font size
0
reset
how to read this tab
guitar tuner
edit
Autoscroll
slow
fast
+/-
esc
set tempo
stop
Hola, esta tablatura fue hecha por Rick de Giventowail, yo no tengo ningún
derecho sobre la canción ni la transcripción, tampoco es de la misma manera
que la saqué yo así que cuando me del tiempo subire mi propía tablatura que
tiene unas pocas diferencias con esta, disfrutenla ;)

Hi, this tab was written by Rick from Giventowail, i do not own the rights
of the song or the tab, this tab is different from the way i learned
(by ear), so when i have time i promise to transcribe the song the way i
played (a little different from this), enjoy it :;)

-|------------------------------|---------------------|-----------------------|
-|----------------------14------|-----------11--------|-----------------------|
-|---------11-----15p13----15---|--------11----13-11--|-----------------------|
-|---11h13----13----------------|--11h13--------------|--11h13----------------|
-|------------------------------|---------------------|-----------------------|
-|------------------------------|---------------------|-----------------------|
   G1                         4x                    2x

-|---6-----------------------------4------------------------------------------|
-|---7-----------------------------4------------------------------------------|
-|---8-----------------------------6------------------------------------------|
-|---8-----------------------------6---------------------6--------------------|
-|---6-----------------------------4---------------------6--------------------|
-|---6-----------------------------4---------------------4--------------------|
   G2

-|----------------------------------------------------------------------------|
-|----------------------------------------------------------------------------|
-|----------------------------------------------------------------------------|
-|--------4--------------------------------------------4----------------------|
-|---6-------4--6--3------------------------------6-------4--6--3-----4-------|
-|----------------------------------------------------------------------------|
   G1                :24

-|----------------------------------------------------------------------------|
-|---------------------------11----11----11----11-----------------------------|
-|---------------------10h11----11----11----11--------------------------------|
-|------------------------------------------------13--------------------------|
-|----------------------------------------------------------------------------|
-|----------------------------------------------------------------------------|
   G2                 :24

-|----------------------------------------------------------------------------|
-|----------------------------------------------------------------------------|
-|--6---6---8-----------------------------------------------------------------|
-|----8----------4------4------------------------------------4----------------|
-|----------6------4------3----------------------------6-------4---6--3--4----|
-|----------------------------------------------------------------------------|
   G1 :32

-|----------------------------------------------------------------------------|
-|--------------------------------11----11----11----11------------------------|
-|--------------------------10-11----11----11----11---------------------------|
-|-----------------------------------------------------13---------------------|
-|----------------------------------------------------------------------------|
-|----------------------------------------------------------------------------|
   G2                      :38

-|----------------------------------------------------------------------------|
-|----------------------------------------------------------------------------|
-|--6---6--8------------------------------------------------------------------|
-|----8----x--------4--------------4------------3h4p3----------4--------------|
-|---------6----------4--------------3-----3h4----------6--------4------------|
-|----------------------------------------------------------------------------|
   G1                                                   :53

-|----------11----------------------------------------------------------------|
-|-------------11----11-------11------------------------11--------------------|
-|----------------------11-13----13--12h13p12-\--10h11-----10-10h11p10-8v-----|
-|----------------------------------------------------------------------------|
-|----------------------------------------------------------------------------|
-|----------------------------------------------------------------------------|
   G2      :46                                          :53

-|----------------------------------------------------------------------------|
-|----------------------------------------------------------------------------|
-|----------------------------------------------------------------------------|
-|--------------4-------------------------------------------------------------|
-|-----------------3------------------6-----------4----------3----------------|
-|----------------------------------------------------------------------------|
   G1                 :57

-|-------------------------------------11-------------------------------------|
-|----------------------------------------11--9h11----------------------------|
-|---6h8-6v--8p6-----------------------------------13--12h13p12---------------|
-|---------------8----------3-3h4-3-------------------------------------------|
-|-----------------9p6--------------------------------------------------------|
-|----------------------------------------------------------------------------|
   G2                 :57

-|------------------------------------------------|-6-------------------------|
-|------------------------------------------------|-7-------------------------|
-|------------------------------------------------|-8-------------------------|
-|----------------------4-------------------------|-8-------------------------|
-|-----------------6------4-----3-----------------|-6-------------------------|
-|------------------------------------------------|-6-------------------------|
   G1   1:06                                       1:14 Rhy Fig 1

-|------------------------------------------------|--------------------------|
-|---------11-------------------------------------|-------------------14-----|
-|---10h11----11-10\8--6h8-6v---------------------|-------11----15p13----15--|
-|----------------------------8-------------------|-11h13----13--------------|
-|------------------------------9-6-----9-8-4-6---|--------------------------|
-|------------------------------------------------|--------------------------|
   G2    1:06                                      1:14                  4x

-|--4--4----------------------------------------------------------------------|
-|-----4----------------------------------------------------------------------|
-|-----6----------------------------------------------------------------------|
-|-----6-----------------------------------------6--------------6--6----------|
-|-----4-----------------------------------------6--------------6--6----------|
-|-----4-----------------------------------------4--------------4--4----------|
   G1                                                         end Rhy Fig 1

-|---------------------------------------------------------------------------|
-|--------------11-------------------11-------------------------11-----------|
-|--------11-------13-11-------11-------13-11-13----------11-------13-11-13--|
-|--11h13----13----------11h13----13-------------11-11h13----13--------------|
-|---------------------------------------------------------------------------|
-|---------------------------------------------------------------------------|
   G2

-|-----------------------------|----------------------------------------------|
-|---------------------14------|---------11--------11-------------------------|
-|--------11-----15p13----15---|------------13-11-----13-11-13----------------|
-|--11h13----13----------------|---11h13-----------------------11h13v--\------|
-|-----------------------------|----------------------------------------------|
-|-----------------------------|----------------------------------------------|
   G2 w/ Rhy Fig 1         4x

-|----------------------------------------------------------------------------|
-|----------------------------------------------------------------------------|
-|----------------------------------------------------------------------------|
-|----------------4--------------------------------------------4--------------|
-|---6--------------4-----3----------4------------------6--------4----3-------|
-|----------------------------------------------------------------------------|
   G1 1:47

-|------11----11--------------------------------------------------------------|
-|---11----11----------------------11----11----11----11-----------------------|
-|---------------------------10h11----11----11----11----11--------------------|
-|----------------------------------------------------------------------------|
-|----------------------------------------------------------------------------|
-|----------------------------------------------------------------------------|
   G2 1:47

-|----------------------------------------------------------------------------|
-|----------------------------------------------------------------------------|
-|----------------------------------------------------------------------------|
-|---------4--------------------------------4---------4-----------------------|
-|---6-------4-----3------------6-------------4---------3---------4-----------|
-|----------------------------------------------------------------------------|
   G1

-|---11-----------------------------------------------------------------------|
-|------11---9h11-9-8h9-8--\--------11----------------------------------------|
-|---------------------------/10h11----10h11-10-8v--8--6h8-6--\3p0------------|
-|------------------------------------------------------------------1--3h4-3--|
-|----------------------------------------------------------------------------|
-|----------------------------------------------------------------------------|
   G2

-|-----------------------------|----------------------------------------------|
-|----------------------14-----|-----------11--------------------11-----------|
-|----------11----15p13----15--|--------11----13p11--13-------11----13p11-13--|
-|----11h13----13--------------|--11h13-----------------11h13-----------------|
-|-----------------------------|----------------------------------------------|
-|-----------------------------|----------------------------------------------|
   G2 2:14 w/ Rhy Fig 1     4x

-|---------------------------------|---------------------------|--------------|
-|------------11-------------------|--------------------14-----|--------------|
-|---------11----13--------11--13--|--------11----15p13----15--|--------------|
-|---11h13-----------11h13---------|--11h13----13--------------|--------------|
-|---------------------------------|---------------------------|--------------|
-|---------------------------------|---------------------------|--------------|
   G2                                                       4x

-|----------------------------------------------------------------------------|
-|-----------11--------------------11-----------------------------------------|
-|--------11----13-11-13--------11----13-11-13--------11----13-------11----13-|
-|--11h13-----------------11h13-----------------11h13----11----11h13----11----|
-|----------------------------------------------------------------------------|
-|----------------------------------------------------------------------------|
   G2

-|---------------------------|------------------------------------------------|
-|--------------------14-----|---------------11-------------------11----------|
-|--------11----15p13----15--|---------11-------13-11-------11-------13-11----|
-|--11h13----13--------------|---11h13----13----------11h13----13-------------|
-|---------------------------|------------------------------------------------|
-|---------------------------|------------------------------------------------|
   G2                    4x

-|-----------------------|----------------------------------------------------|
-|-----------------------|----------------------------------------------------|
-|-----------------------|--------------------------------------------6---6---|
-|--11h13----\-/13v------|---------------------------4---4-6b7r6---/8---8-----|
-|-----------------------|-----/6-------4---4-6v-------6----------------------|
-|-----------------------|-----------/6---6-----------------------------------|
   G2                      3:02 Solo

-|----------------------------------------------------------------------------|
-|-----------------6-6h7p6p4-4--6h7p6----6h7p6--------------------------------|
-|--8vv-b11--/---------------------------------8--8-8v--8v--8-8-8-8vv--\------|
-|------------------------------------8---------------------------------------|
-|----------------------------------------------------------------------------|
-|----------------------------------------------------------------------------|
   G2

-|------------------------------------------------------14b16vv---------------|
-|----------------------------------------------------------------------------|
-|---13b15vv--------11-13b15r13-11--13b15vv--b15-r13-11-----------------------|
-|------------11h13-----------------------------------------------------------|
-|----------------------------------------------------------------------------|
-|----------------------------------------------------------------------------|
   G2                                                     fade out

(c) 2005 GTW

            
            
Suggest correction
Creating personal tab
Creating personal tab
You can edit any tab online and save it as your Personal.

You can edit, replace or remove any tab part or add personal notes – all changes will be seen only by you.

Personal tabs can be accessed anytime from any device, even offline.
Learn more »
Give kudos to tab author, rate the tab!
1 2 3 4 5
comments
print report bad tab
1 comment total.
0 reply
joedott 115 Aug 13, 2013 02:56 AM

nice one rick

guest
You may want to rate the tab now too:
select rating
Wanna post a correction for this tab? Suggest correction