Oops, an error
Loading. Please wait.

Holy Roller Tab

871 views 6 this week
no commentswrite comment
1 2 3 4 5
please rate
add to favorites
launch autoscroll
font size
0
reset
how to read this tab
guitar tuner
Autoscroll
slow
fast
+/-
esc
set tempo
stop
Help us to improve Ultimate-Guitar.com Take our survey!
×
Author
Hey, again this tab isn't mine, it was made
by rick from given to wail, so check his web :)

G1: Rhythm
G2: Solos

Intro:
-|----------------------------------------------------------------------------|
-|----------------------------------------------------------------------------|
-|----------------------------------------------------------------------------|
-|-----------------------------------8--9------------------------------8--9---|
-|-------------7--7-5------------7---7--7---7-7-7-7--7-5------------7--7--7---|
-|---12\---0----------7-5-3-5--0-----6--7----------------7-5-3-5--0----6--7---|
  G1

-|------------------------------------15---------------14vvv------------------|
-|--------15b17vv------------------------14--------14-------------------------|
-|-------------------------------------------12h13h14-------------------------|
-|----------------------------------------------------------------------------|
-|----------------------------------------------------------------------------|
-|----------------------------------------------------------------------------|
  G2 - Intro Solo (not lined up exactly)

-|----------------------------------------------------------------------------|
-|-------------------------------8--------------------------------------------|
-|-------------------------------7--------------------------------------------|
-|-------------------------------6--8--9--------------------------------------|
-|--7--7-7-7-7--7-5--------------7--7--7-----7--7-5-----------7--7-5----------|
-|--0--0-0-0-0-------7-5-3-5--0-----6--7---0--------7-5-3-5-0--------7-5--5---|
  G1

-|----------------------------------------------------------------------------|
-|---------------------------------------3----------------10b12vv-------------|
-|----------------/--x---\-----2p0---2/4--------------7-----------------------|
-|----------------/--x---\---------2------------------6-----------------------|
-|--7--7-7-7-7----------------------------------------7-----------------------|
-|-----------0----------------------------------------------------------------|
  G2

-|----------------------------------------------------------------------------|
-|----------8---8-8--8--------8------------------8---8--8-8-------8-----------|
-|----------7---7-7--7--------7------------------7---7--7-7-------7-----------|
-|----------6---6-6--6--------6---8--9-----------6---6--6-6-------6---8--9----|
-|----------7---7-7--7---6h7--7---7--7---6h7-----7---7--7-7--6h7--7---7--7----|
-|--3---0-------------------------6--7--------0-----------------------6--7----|
     Verse          :21                                     Repeat for Verse

-|----------------------------------------------------------------------------|
-|----------------------------------------------------------------------------|
-|---9----------------x--x---x--------x--x---x-------/---9-------------x------|
-|---9----x--x---5----x--x---x---7----x--x---x---5---/---9--x--x---5---x------|
-|---7----x--x---5----x--x---x---7----x--x---x---3---/---7--x--x---5---x------|
-|---------------3---------------5---------------------------------3----------|
   Chorus

-|-------------------|------15--------------------------------19b-------------|
-|--------6*--5*-----|---------17----15h17-15-17vv--15h17p15------17v--20v----|
-|---5----5---5------|-/16--------16------------------------------------------|
-|---5----5---5------|--------------------------------------------------------|
-|---3---------------|--------------------------------------------------------|
-|-------------------|--------------------------------------------------------|
     2x   *2nd time     Solo (w/ verse riff)

-|----------------------------------------------------------------------------|
-|--20b22r20--17h20p17--------12h15p12----------------------------------------|
-|-------------------------------------14b15r14--14-12\-----------------------|
-|-----------------------/14--------------------------------------------------|
-|----------------------------------------------------------------------------|
-|----------------------------------------------------------------------------|
                                                          into Verse, Chorus

-|-------------------------------|-----------------------|--------------------|
-|----8----8------8-------8------|--10-10--10---11---12--|--------------------|
-|----7------7------7-------7----|--9--9---9----10---11--|--------------------|
-|----6--------5------6-------7/-|--7--7---7----8----9---|-----6--\-----------|
-|----7--------------------------|-----------------------|-----7--\-----------|
-|-------------------------------|-----------------------|--0-----------------|
                                                     4x

-|----------------------------------------------------------------------------|
-|----------------------------------------------------------------------------|
-|----------------------------------------------------------------------------|
-|----------------------------------------------------------------------------|
-|---7-7-7-7---7-7-7-7--7-7-7-7--7-7-7-7--------------------------------------|
-|---0-0-0-0---0-0-0-0--0-0-0-0--0-0-0-0--------------------------------------|
   1:54  lots of random noise that probably won't be tabbed.

-|----------------------------|-----------------------------------------------|
-|----------------------------|--------6---5----------------------8\----------|
-|----------------------------|---5----5---5-----7----------------7\----------|
-|----------------------------|---5----5---5-----4----------------6\----------|
-|----------------------------|---3----3---3-----5---/---7vv------7\----------|
-|----------------------------|-----------------------------------------------|
   3:26 Chorus repeats until:


(c) 2005 GTW
Suggest correction new What's this?
You can suggest a correction to this tab. Community and Mods will review your correction and vote to approve or reject it.
comments
We did not receive enough feedback on this tab! Please rate:
print report bad tab
1 2 3 4 5
guest
You may want to rate the tab now too:
select rating
Please do not post tabs as comments. Select "correction" instead!