Oops, an error
Loading. Please wait.

Angry Sea Tab

3,263 views 12 this week
no commentswrite comment
1 2 3 4 5
x 5
add to favorites
launch autoscroll
font size
0
reset
how to read this tab
guitar tuner
Autoscroll
slow
fast
+/-
esc
set tempo
stop
Help us to improve Ultimate-Guitar.com Take our survey!
×
Difficulty
Tuning
novice
D A D G B E
Figured I would post this one since its pretty easy!

ANGRY SEA - MOTHER MOTHER

                                                     I don't want the
e|----1-------1-------1-------1-------1-------1-------------------|
B|----------------------------------------------------------------|
G|--2---2---2---2---2---2---2---2---2---2---2---2-----------------|
D|0-------0-------0-------0-------0-------0-------0---------------|
A|----------------------------------------------------------------|
D|----------------------------------------------------------------|

  same disease          That everybodys got these days     I don't wanna
e|----1-------1-------1-------1-------1-------1-------1-------1---|
B|----------------------------------------------------------------|
G|--2---2---2---2---2---2---2---2---2---2---2---2---2---2---2---2-|
D|0-------0-------0-------0-------0-------0-------0-------0-------|
A|----------------------------------------------------------------|
D|----------------------------------------------------------------|

  live that   way       I do not want to live in pain|So take your para-
e|----------------------------------------------------------------|
B|----2-------2-------2-------2-------2-------2-------------------|
G|----------------------------------------------------------------|
D|--2---2---2---2---2---2---2---2---2---2---2---------------------|
A|0-------0-------0-------0-------0-------0-----------------------|
D|----------------------------------------------------------------|

  sites away          And keep em some where far from me|Cuz I don't want the
e|----1-------1-------1-------1-------1-------1-------------------|
B|----------------------------------------------------------------|
G|--2---2---2---2---2---2---2---2---2---2---2---2-----------------|
D|0-------0-------0-------0-------0-------0-------0---------------|
A|----------------------------------------------------------------|
D|0---------------------------------------------------------------|

  same  disease     that everybodys got these days      I don't wanna
e|----------------------------------------------------------------|
B|----2-------2-------2-------2-----------2-----------------------|
G|----------------------------------------------------------------|
D|--2---2---2---2---2---2---2---2-----2---------------------------|
A|0-------0-------0-------0-------0-------0-----------------------|
D|----------------------------------------------------------------|

  live that   way       I do not want to live in pain|Another fool in
e|----------------------------------------------------------------|
B|----2-------2-------2-------2-------2-------2-------------------|
G|----------------------------------------------------------------|
D|--2---2---2---2---2---2---2---2---2---2---2---------------------|
A|1-------1-------1-------1-------1-------1---1-------------------|
D|----------------------------------------------------------------|

  history     I'll tell you what it means to be it's nothing but la-
e|----------------------------------------------------------------|
B|----3-------3-------3-------3-------3-------3-------3-------3---|
G|----------------------------------------------------------------|
D|--4---4---4---4---4---4---4---4---4---4---4---4---4---4---4---4-|
A|2-------2-------2-------2-------2-------2-------2-------2-------|
D|----------------------------------------------------------------|

  botamy        It's nothing but an angry sea        Striking a
e|----------------------------------------------------------------|
B|----3-------3-------3-------3-------3-------3-------------------|
G|----------------------------------------------------------------|
D|--5---5---5---5---5---5---5---5---5---5---5---------------------|
A|2-------2-------2-------2-------2-------2-----------------------|
D|----------------------------------------------------------------|

  way     way     with            me--he          Ohhhhhh, with
e|----2-------2---------------------------------------------------|
B|--------------------0-------0-----------------------------------|
G|--2---2---2---2---------------------0-------0---0---------------|
D|0-------0---------3---3---3---3-----------------0---------------|
A|0---------------4-------4---------2---2---2-----2---------------|
D|--------------------------------5-------5-------5---------------|

  me-he                                                 It's coming like a
e|----2-------2-------2-------2-------2-------2-------2-----------|
B|----3-------3-------3-------3-------3-------3-------3-----------|
G|----2-------2-------2-------2-------2-------2-------2-----------|
D|0---------------------0-0-0-0-0-0-0-0-0-0-0-0-0-0-0-0-----------|
A|0---------------------0-0-0-0-0-0-0-0-0-0-0-0-0-0-0-0-----------|
D|0---------------------0-0-0-0-0-0-0-0-0-0-0-0-0-0-0-0-----------|

  big frieght train, it's spreading like a wild flame, you know it's coming
e|----1-------1---|
B|----3-------3---|
G|----2-------2---| x 4
D|0-----0-0-0-0-0-|
A|0-----0-0-0-0-0-|
D|0-----0-0-0-0-0-|

  all our     way,so dig your bed and make your grave   Ma ma ma ma ma
e|----0-------0-------0-------0-------0-------0-------0-----------|
B|----2-------2-------2-------2-------2-------2-------2-----------|
G|0-----0-0-0-0-0-0-----0-0-0-0-0-0-----0-0-0-0-0-0---------------|
D|2-----2-2-2-2-2-2-----2-2-2-2-2-2-----2-2-2-2-2-2---------------|
A|0-----0-0-0-0-0-0-----0-0-0-0-0-0-----0-0-0-0-0-0---------------|
D|----------------------------------------------------------------|

  Ma ma      save me        come on and vaccinate me    Cuz I don't want the
e|----1-------1-------1-------1-------1-------1-------1-----------|
B|----3-------3-------3-------3-------3-------3-------3-----------|
G|----2-------2-------2-------2-------2-------2-------2-----------|
D|0-----0-0-0-0-0-0-----0-0-0-0-0-0-----0-0-0-0-0-0---------------|
A|0-----0-0-0-0-0-0-----0-0-0-0-0-0-----0-0-0-0-0-0---------------|
D|0-----0-0-0-0-0-0-----0-0-0-0-0-0-----0-0-0-0-0-0---------------|

  same disease        that everybodys got these days     I do not want to
e|0-0-0-0-0-0-0-0-0-0-0-0-0-0-0-0-0-0-0-0-0-0-0-0-0-0-0-----------|
B|2-2-2-2-2-2-2-2-2-2-2-2-2-2-2-2-2-2-2-2-2-2-2-2-2-2-2-----------|
G|0-0-0-0-0-0-0-0-0-0-0-0-0-0-0-0-0-0-0-0-0-0-0-0-0-0-0-----------|
D|2-2-2-2-2-2-2-2-2-2-2-2-2-2-2-2-2-2-2-2-2-2-2-2-2-2-2-----------|
A|0-0-0-0-0-0-0-0-0-0-0-0-0-0-0-0-0-0-0-0-0-0-0-0-0-0-0-----------|
D|----------------------------------------------------------------|

  live that   way       I do not want to live in pain|Another fool in
e|----------------------------------------------------------------|
B|----2-------2-------2-------2-------2-------2-------------------|
G|----------------------------------------------------------------|
D|--2---2---2---2---2---2---2---2---2---2---2---------------------|
A|1-------1-------1-------1-------1-------1---1-------------------|
D|----------------------------------------------------------------|

  history     I'll tell you what it means to be it's nothing but la-
e|----------------------------------------------------------------|
B|----3-------3-------3-------3-------3-------3-------3-------3---|
G|----------------------------------------------------------------|
D|--4---4---4---4---4---4---4---4---4---4---4---4---4---4---4---4-|
A|2-------2-------2-------2-------2-------2-------2-------2-------|
D|----------------------------------------------------------------|

  botamy        It's nothing but an angry sea        Striking a
e|----------------------------------------------------------------|
B|----3-------3-------3-------3-------3-------3-------------------|
G|----------------------------------------------------------------|
D|--5---5---5---5---5---5---5---5---5---5---5---------------------|
A|2-------2-------2-------2-------2-------2-----------------------|
D|----------------------------------------------------------------|

  way     way     with            me--he                     with
e|----2-------2---------------------------------------------------|
B|--------------------0-------0-----------------------------------|
G|--2---2---2---2---------------------0-------0-------0-------0---|
D|0-------0---------3---3---3---3---------------------------------|
A|0---------------4-------4---------2---2---2---2---2---2---2---2-|
D|--------------------------------5-------5-------5-------5-------|

  me--he                     with me                  he
e|----0-------0-------0-------0-----------------------0-------0---|
B|----0-------0-------0-------0-----------------------2-------2---|
G|--1---1---1---1---1---1---1---1-----0-------0-------------------|
D|2-------2-------2-------2-------------------------2---2---2---2-|
A|----------------------------------2---2---2---2-0-------0-------|
D|--------------------------------5-------5-----------------------|

  he
e|1---1-------1-------1-------1-----------------------------------|
B|3---------------------------------------------------------------|
G|2-----2---2---2---2---2---2---2---------------------------------|
D|0-------0-------0-------0-------0-------------------------------|
A|0---------------------------------------------------------------|
D|0---------------------------------------------------------------|
Suggest correction
comments
print report bad tab
guest
You may want to rate the tab now too:
select rating
Wanna post a correction for this tab? Suggest correction