Oops, an error
Loading. Please wait.

Ball Cap Acoustic tab

version 2
version 2

Whole song

  • Fully laid out tab with lyrics and specific notati... Show more
451 views 30 this week
1 commentread comment
1 2 3 4 5
x 3
add to favorites
×
Save as Personal and add changes to this tab that will be seen only by you. Learn more ›
×
You can save this tab as Personal to edit and correct it or add notes. All changes will be seen only by you. Learn more »
launch autoscroll
font size
0
reset
how to read this tab
guitar tuner
edit
Autoscroll
slow
fast
+/-
esc
set tempo
stop
Author
About this tab version
Fully laid out tab with lyrics and specific notation on where to play what, how to play it, and how it should sound. Transcribed by ear from an acoustic session of this song: https://www.youtube.com/watch?v=jDovxCRiK2A . Was this info helpful? Yes No
This tab might not be 100% on the nose but I think it's pretty dang close. Couldnt find a tab anywhere else
so I thought I'd share. It's a little bit different but this is what I play when I cover it. I'm a girl and
i usually have a capo on the third fret, but if you want it to match Mother Mother's key it wouldn't require
  
[Intro]

e|---0---0---0---0---0---0---0------0---0---0---0---0---0---0----------------|
B|--3---3---3---3---0---0---0------3---3---3---3---3---0---0-----------------|
G|-4---4---4---4---0---0---0------4---4---4---4---4---0---0------------------|
D|5---5---5---5---2---2---2---0--5---5---5---5---5---2---2---0---------------|
A|---------------------------------------------------------------------------|
E|---------------------------------------------------------------------------|

Start on 'treetops' [I like the treetops....]      [strum down on 'brambles and the weeds]

e|---0---0---0---0---0---0---0---0---0---0---0---0--0------------------------|
B|--3---3---3---3---0---0---0---0---3---3---3---3---0------------------------|
G|-4---4---4---4---0---0---0---0---4---4---4---4----0------------------------|
D|5---5---5---5---2---2---2---2---5---5---5---5-----2------------------------|
A|--------------------------------------------------x------------------------|
E|--------------------------------------------------x------------------------|


Start on 'rooster'[I am a rooster....]               [cockadoo...]

e|----------------------------------------------------------------------0----|
B|---0---0---0---0---0----0---0---0---0---0---0---0---0---0---1---1---1-1----|
G|--2---2---2---2---0----0---0---0---2---2---2---2---0---0---2---2---0--0----|
D|-1---1---1---1---2----2---2---2---1---1---1---1---0---0---3---3---2---2----|
A|2---2---2---2--------------------2---2---2---2-------------------3----3----|
E|----------------0---0----0---0-------------------3---3---1---1--------x----|

[eerie 'ooo' part]

e|---------------------------------------------------------------------------|
B|---3---3---4---4---3---3-3-------------------------------------------------|
G|--0---0---0---0---0---0----------------------------------------------------|
D|-0---0---0---0---0---0-----------------------------------------------------|
A|---------------------------------------------------------------------------|
E|3---3---3---3---3---3----3-------------------------------------------------|


{strumming]

            G      Em
I like the people standing in the streets
 
            G
Cuz they are dumb- faced


Em 
Dumb faced just like me


[They're asking 'what we'....]                     [in our right shoe....]

e|----------------------------------------------------------------------0----|
B|---0---0---0---0---0----0---0---0---0---0---0---0---0---0---1---1---1-1----|
G|--2---2---2---2---0----0---0---0---2---2---2---2---0---0---2---2---0--0----|
D|-1---1---1---1---2----2---2---2---1---1---1---1---0---0---3---3---2---2----|
A|2---2---2---2--------------------2---2---2---2-------------------3----3----|
E|----------------0---0----0---0-------------------3---3---1---1--------x----|


[second eerie 'ooo' part]

e|---------------------------------------------------------------------------|
B|---3---3---4---4---3---3---3---3---3---3---4---4---3---3---3---3-----------|
G|--0---0---0---0---0---0---0---0---0---0---0---0---0---0---0---0------------|
D|-0---0---0---0---0---0---0---0---0---0---0---0---0---0---0---0-------------|
A|---------------------------------------------------------------------------|
E|3---3---3---3---3---3---3---3---3---3---3---3---3---3---3---3--------------|


[I wear my ballcap....]               [You wear your black dress....]

e|---0---0---0---0---0---0---0---0-------------------------------------------|
B|--0---0---0---0---0---0---0---0-----3---3---3---3---0---0---0---0----------|
G|-5---5---5---5---5---5---5---5-----0---0---0---0---0---0---0---0-----------|
D|0---0---0---0---4---4---4---4-----0---0---0---0---2---2---2---2------------|
A|---------------------------------------------------------------------------|
E|---------------------------------3---3---3---3---0---0---0---0-------------|


[Oh baby baby I'll lose my....]      [Well only if you....] [strum an Em on 'loose fat'}

e|---0---0---0---0---0---0---0---0-------------------0-----------------------|
B|--0---0---0---0---0---0---0---0-----3---3---3---3--0-----------------------|
G|-5---5---5---5---5---5---5---5-----0---0---0---0---0-----------------------|
D|0---0---0---0---4---4---4---4-----0---0---0---0----2-----------------------|
A|---------------------------------------------------2-----------------------|
E|---------------------------------3---3---3---3-----0-----------------------|


[strumming this next part a little forcefully: dont you know that beauty....] 
                                                  [only ONE strum down on 'skin me']

e|0---0---0---0---0---0---0---0----3---3---3---3---0-------------------------|
B|0---0---0---0---0---0---0---0----3---3---3---3---0-------------------------|
G|5---5---5---5---5---5---5---5----0---0---0---0---0-------------------------|
D|0---0---0---0---4---4---4---4----0---0---0---0---2-------------------------|
A|x---x---x---x---x---x---x---x----0---0---0---0---2-------------------------|
E|x---x---x---x---x---x---x---x----3---3---3---3---0-------------------------|
 
[soft, single strums on these]

           Am
I like the biggins
                           D7
only cuz they make me look real thin, yeah

[Intro again]

e|---0---0---0---0---0---0---0------0---0---0---0---0---0---0----------------|
B|--3---3---3---3---0---0---0------3---3---3---3---3---0---0-----------------|
G|-4---4---4---4---0---0---0------4---4---4---4---4---0---0------------------|
D|5---5---5---5---2---2---2---0--5---5---5---5---5---2---2---0---------------|
A|---------------------------------------------------------------------------|
E|---------------------------------------------------------------------------|
 
[pluck these chords individually as noted - don't strum]      

[I like the treetops....]                 [strum down on 'brambles and the weeds]

e|0---0---0---0---0---0---0---0---0---0---0---0--0---------------------------|
B|3---3---3---3---0---0---0---0---3---3---3---3--0---------------------------|
G|4---4---4---4---0---0---0---0---4---4---4---4--0---------------------------|
D|5---5---5---5---2---2---2---2---5---5---5---5--2---------------------------|
A|-----------------------------------------------x---------------------------|
E|-----------------------------------------------x---------------------------|
 
[I am a rooster....]               [cockadoo...]

e|----------------------------------------------------------------------0----|
B|---0---0---0---0---0----0---0---0---0---0---0---0---0---0---1---1---1-1----|
G|--2---2---2---2---0----0---0---0---2---2---2---2---0---0---2---2---0--0----|
D|-1---1---1---1---2----2---2---2---1---1---1---1---0---0---3---3---2---2----|
A|2---2---2---2--------------------2---2---2---2-------------------3----3----|
E|----------------0---0----0---0-------------------3---3---1---1--------x----|
 
[first eerie 'ooo' part]

e|---------------------------------------------------------------------------|
B|---3---3---4---4---3---3-3-------------------------------------------------|
G|--0---0---0---0---0---0----------------------------------------------------|
D|-0---0---0---0---0---0-----------------------------------------------------|
A|---------------------------------------------------------------------------|
E|3---3---3---3---3---3----3-------------------------------------------------|



************************************

| x  Dead note

************************************

            
            
Suggest correction
Creating personal tab
Creating personal tab
You can edit any tab online and save it as your Personal.

You can edit, replace or remove any tab part or add personal notes – all changes will be seen only by you.

Personal tabs can be accessed anytime from any device, even offline.
Learn more »
Give kudos to tab author, rate the tab!
1 2 3 4 5
comments
print report bad tab
1 comment total.
0 reply
Ginko1228 10 Feb 08, 2017 01:31 PM

INCREDIBLY well done! Thank you man!!

guest
You may want to rate the tab now too:
select rating
Wanna post a correction for this tab? Suggest correction