Oops, an error
Loading. Please wait.

Body Of Years Bass Tab

version 2
version 2

Whole song

1,214 views 18 this week
2 commentsread comments
1 2 3 4 5
please rate
add to favorites
launch autoscroll
font size
0
reset
guitar tuner
Autoscroll
slow
fast
+/-
esc
set tempo
stop
Help us to improve Ultimate-Guitar.com Take our survey!
×
Difficulty
novice
Easy song, if you have any complaints about the tab, please feel free to forward them to 
my jumk email adress at crashkidstephen@gmail.com

Intro/Chorus/Verses
G|----------------------------------------------------------------|o
D|----------------------------------------------------------------|
A|---------------------------7-7-6-5-5-5-5-5-5-5-5----------------|
E|-2-2-2-2-2-0-0-2-5-5-5-5-5-----------------------3-3-3-3-3-3-3-5|o

Pre Chorus 1
G|----------------|
D|----------------|
A|----------------|
E|-5-5-5-5-5-5-5-5|

Pre Chorus 2/Bridge before the piano part.
G|----------------------------------------------------------------|
D|----------------------------------------------------------------|
A|5-5-5-5-5-5-5-5-------------------------------------------------|
E|----------------4-4-4-4-4-4-4-4-5-5-5-5-5-5-5-5-2-2-2-2-2-2-2-2-|

G|------------------------------------------------|
D|------------------------------------------------|
A|5-5-5-5-5-5-5-5---------------------------------|
E|----------------3-3-3-3-3-3-3-3-3-3-3-3-3-3-3-3-|

Bass in piano part
G|----------------------------------------------------------------|
D|----------------------------------------------------------------|
A|-5------4------3------------------------------------------------|
E|----------------------------6------------3------------6------5--|
Suggest correction
Give kudos to tab author, rate the tab!
1 2 3 4 5
comments
print report bad tab
2 comments total.
0 reply
drunion9 10 wrote on September 28 2014, 04:00 pm

what times does the pre chorus come in?

0 reply
steviegfunk 111 wrote on October 20 2014, 01:25 pm

Sorry the pre-chorus is

G|--------------------------------|
D|--------------------------------|
A|-5-5-5-5-5-5-5-5-5-5-5-5-5-5-5-5|
E|--------------------------------|

Ment to be on the A string.

guest
You may want to rate the tab now too:
select rating
Please do not post tabs as comments. Select "correction" instead!