Oops, an error
Loading. Please wait.

Born In A Flash Bass

563 views 3 this week
no commentswrite comment
1 2 3 4 5
3 more votes to show rating
add to favorites
launch autoscroll
font size
0
reset
guitar tuner
×
Best way to learn
"Born In A Flash"
Autoscroll
slow
fast
+/-
esc
set tempo
stop
Author
Difficulty
The \'s mean you slide down but only at the very end of the not and it is a very slight 
slide. Listen to the song to know what I am talking about.

G|-------------------------------------------------------------------|
D|--------------------------3\------------------------------3----1-3-|
A|--3\------3\------4\--------------3\------3\------4\--------1/3----|
E|-------------------------------------------------------------------|

G|-------------------------------------------------------------------|
D|--------------------------3\------------------------------3(hold)--|
A|--3\------3\------4\--------------3\------3\------4\---------------|
E|-------------------------------------------------------------------|

G|--10--10--10--10--9--9--9--9--7--7--7--7---------------------------|
D|------------------------------------------6(hold)------------------|
A|-------------------------------------------------------------------|
E|-------------------------------------------------------------------|

G|-------------------------------------------------------------------|
D|--------------------3--3--------------------3----1-3---------------|
A|--3--3--------4--4--------3--3--------4--4----1/3------------------|
E|--------4--4--------------------4--4-------------------------------|

G|-------------------------------------------------------------------|
D|--------------------------3\-----------5-------6-------6--3\-------|
A|--3\------3\------4\--------------3-------3-------4----------------|
E|-------------------------------------------------------------------|

G|---------------6\-------------------5------------------------------|
D|------------------5-5/6-5-3-------------------3/-------------------|
A|---1--3\--4-----------------3\--1-3----4(hold)---------------------|
E|--1----------------------------------------------------------------|

G|--10--10--10--10--9--9\-5--5--7--7--7--7\--------------------------|
D|-------------------------------------------------------------------|
A|-------------------------------------------------------------------|
E|-------------------------------------------------------------------|

G|-------------------------------------------------------------------|
D|-------------------------------------------------------------------|
A|--11(x4)-10(x4)-11(x4)/14(hold)------------------------------------|
E|-------------------------------------------------------------------|

G|-------------------------------------------------------------------|
D|--------------------3----------------------------------------------|
A|--3--3\-------4--4\-------3--3\-------------1--1-------------------|
E|--------4--4\----------1--------4--4\-1--1-------------------------|

G|-------------------------------------------------------------------|
D|--1--1--------------------1--1-------------------------------------|
A|--------2--2--------5--5-------------------------------------------|
E|--------------4--4--------------4--4--0--0--3--3-------------------|

G|-------------------------------------------------------------------|
D|--------------------3\---------------------------------------------|
A|--3--3--3--3--4--4--------3--3--------4--4-------------------------|
E|-----------------------1--------4--4--------1(hold)----------------|

G|-------------------------------------------------------------------|
D|-------------------------------------------------------------------|
A|--5(hold)----------------------------------------------------------|
E|-------------------------------------------------------------------|

This is my favourite Mother Mother song and in an interview the bassist Jeremy Page said 
that it was his favourite of their album Eureka.
Suggest correction
Give kudos to tab author, rate the tab!
1 2 3 4 5
comments
print report bad tab
guest
You may want to rate the tab now too:
select rating
Wanna post a correction for this tab? Suggest correction