Oops, an error
Loading. Please wait.

Business Man Tab

version 2
version 2

Whole song

820 views 6 this week
no commentswrite comment
1 2 3 4 5
please rate
add to favorites
launch autoscroll
font size
0
reset
how to read this tab
guitar tuner
Tab Pro tools
  • play this tab
  • loop segment
  • change instrument
  • show fretboard
  • metronome
×
Best way to learn
"Business Man"
Autoscroll
slow
fast
+/-
esc
set tempo
stop
Contributor
Difficulty
novice
Song: Business Man
Artist: Mother Mother

Tuning: Standard


Intro:
e|----------------------------------------------|
B|-------0--------0-3-----------------3\4/3\4/3-|
G|-----0-----------------------0----------------|
D|--------------------4-3-2--2------------------|
A|--2------0-1-2-----------------2--------------|
E|----------------------------------------------|



Course:
e|----------------------------------------------|
B|----------------------------------------------|
G|---------------11-10-9-9----------------------|
D|--9-9-7-8-9-9--11-10-9-9-9-9-1010101010101010-|
A|--9-9-7-8-9-9--9--8--7-7-9-9-1010101010101010-|
E|--7-7-5-6-7-7------------7-7-8-8-8-8-8-8-8-8--|


About 2:00 mins in:
e|--------------------------------|
B|--------------------------------|
G|--------------------------------|
D|-5-5-x---5-5-x---5-5-x---5-5-x--|
A|-5-5-x---5-5-x---5-5-x---5-5-x--|
E|-3-3-x---3-3-x---3-3-x---3-3-x--|

e|------------------------------------|
B|------------------------------------|
G|------------------------------------|
D|--5-5-5-5-4-4-4-4-9-9-9-9-10101010--| x2
A|--5-5-5-5-4-4-4-4-9-9-9-9-10101010--|
E|--3-3-3-3-2-2-2-2-7-7-7-7-8-8-8-8---|

e|----------------------------------|
B|----------------------------------|
G|------------------9---9-----------|
D|--5---5---9---9---9---9---10--10--|
A|--5---5---9---9---7---7---10--10--| After this you lead into the chores
E|--3---3---7---7-----------8---8---|



If you have any questions Please E-mail me at: Connman.guitarist@gmail.com
comments
We did not receive enough feedback on this tab! Please rate:
print report bad tab
1 2 3 4 5
I want to post or [tab]
guest
You may want to rate the tab now too:
select rating
Please do not post tabs as comments. Select "correction" instead!