Oops, an error
Loading. Please wait.

Getaway Chords

version 2
version 2

Whole song

1,816 views 3 this week
no commentswrite comment
1 2 3 4 5
please rate
add to favorites
launch autoscroll
font size
0
reset
transpose
0
reset
display chords
guitar tuner
Tab Pro tools
  • play this tab
  • loop segment
  • change instrument
  • show fretboard
  • metronome
×
Best way to learn
"Getaway"
Autoscroll
slow
fast
+/-
esc
set tempo
stop
Contributor
Difficulty
intermediate
-----------------------------------------------------------------------
                       GETAWAY – MOTHER MOTHER
-----------------------------------------------------------------------

Tabbed by: DoolanFace

The chords are picked in 2 different ways. When playing the F and Dm you pick the D, G, 
B, and E strings. On the Am and Bb you pick the A, G, B, and E strings. 4 times on each chord.

Intro:  F  Am  F  Am

     F           Am
In a dream, on a wave.
        F                              Am
I could tunnel underground, or I could float away.
        Bb            Dm
From it all, on a holiday. Bon voyage,
              F                     Am  (play twice through then let the G string ring 
on Am)
I want to get away      from what I know.

change from F to Am    (play twice through then let the G string ring on Am)
Ooo...         Aaa...

        F              Am
I could shoot into the sun.
        F                          Am
I could be the bullet of a gatling gun.
    Bb                  Dm
Disappear, another dilanger on the run.
              F                        (pause or let the A string ring)
I want to get away from everything, and everyone.

             F            Am
We gotta get away from it all.
             F                                  Am
We gotta get away from everything we've come to know.
             Bb                  Dm
We gotta get gone, like on a holiday but for longer.
F                                  (pause or let the A string ring.)
Away from all the silly things that are us.

Change from F to Am
Ooo...          Aaa...
on the last Am he picks D, G, B, E, 
B, E, B, G strings. Listen to it.

        Bb
I could explode.
                    Dm
Oh what I'd give to be a Supernova.
   F                            (pause or let the A string ring)
Oh if I could be blown to bits I would. Yea.

             F            Am
We gotta get away from it all.
             F                                  Am
We gotta get away from everything we've come to know.
             Bb                  Dm    (pick only the B string on the 3 and 2nd. If  it 
sounds ok)
We gotta get gone, like on a holiday but for         lon     -    ger.
F                                   (pause or let A string ring)
Away from all the silly things that are us.

SOLO:
e|-----------------------------|--------------------------------------|
B|-----------------------------|--------------------------------------|
G|-----------------------------|---------------0-0--------------------|
D|---------------2-2--0--------|--------------------3-----------------|
A|0--2--4--2--4----------3--0--|--2--4--2--4------------7--6--5--0----|
E|-----------------------------|--------------------------------------|

e|-----------------------------|-----------------------------|
B|-----------------------------|-----------------------------|
G|-----------------------------|---------------0-0-----------|
D|---------------2-2--0--------|--------------------3--------|
A|---2--4--2--4----------3--0--|--2--4--2--4-----------7--5--|
E|-----------------------------|-----------------------------|


sturm:
           Bb
And if you run from it, darling.
Dm  Bb              F(strum)        F(pick)    Am
Ba    by, would you think about takin  me?

F  Am

F                         Am
We gotta get away from it all.      (x4)



Thanks. Peace.
comments
We did not receive enough feedback on this tab! Please rate:
print report bad tab
1 2 3 4 5
I want to post or [tab]
guest
You may want to rate the tab now too:
select rating
Please do not post tabs as comments. Select "correction" instead!