Oops, an error
Loading. Please wait.

Ghosting Tab

version 1
version 1

Whole song

Interactive

6,480 views 1 this week
5 commentsread comments
1 2 3 4 5
x 8
add to favorites
launch autoscroll
font size
0
reset
how to read this tab
guitar tuner
Autoscroll
slow
fast
+/-
esc
set tempo
stop
Help us to improve Ultimate-Guitar.com Take our survey!
×
Difficulty
intermediate
Band - Mother Mother
Song - Ghosting

E||-----------------------|-----------------------|-
B||--10----10----10---10--|--10----10----10---10--|-
G||-----------10----------|-----------10----------|-
D||---9-------------9-----|---9-------------9-----|-
A||-----------------------|-----------------------|-
E||-----------------------|-----------------------|-

--------------------------|-----------------------|
-----10----10----10---10--|--10----10----10---10--|
--------------10----------|-----------10----------|
------9-------------9-----|---9-------------------|
--------------------------|-----------------0-----|
--------------------------|-----------------------|

-----10----10----10---10--|-----------------------|-
--------------10----------|---8-----8-----8----8--|-
------9-------------9-----|------------8----------|-
--------------------------|-----------------7-----|-
--------------------------|-----------------------|-
--------------------------|-----------------------|-

--------------------------|-----------------------|
-----10----10----10---10--|--10----10----10---10--|
--------------10----------|-----------10----------|
------9-------------9-----|---9-------------9-----|
--------------------------|-----------------------|
--------------------------|-----------------------|
Suggest correction
comments
print report bad tab
5 comments total. Showing first comments.
0 reply
Elioz 10 Oct 19, 2008 04:08 PM

No where near correct. I assume your trying to tab the intro, which is acutally just Ryan picking a B chord.

0 reply
audiophiliactic 10 Nov 17, 2013 01:47 PM

Im sorry, but if you actually play this tab it is a mess of dissonance.

0 reply
drunion9 10 Sep 11, 2014 08:35 PM

Lack of accuracy. Clearly wrong. this tab is obviously incorrect, theres no doubt about it. you can tell just be even looking at it, it just doesnt match up with the song

guest
You may want to rate the tab now too:
select rating
Wanna post a correction for this tab? Suggest correction