Oops, an error
Loading. Please wait.

Ghosting tab

version 4
version 4

Whole song

Interactive

6,269 views 165 this week
6 commentsread comments
1 2 3 4 5
x 12
add to favorites
×
Save as Personal and add changes to this tab that will be seen only by you. Learn more ›
×
You can save this tab as Personal to edit and correct it or add notes. All changes will be seen only by you. Learn more »
launch autoscroll
font size
0
reset
how to read this tab
guitar tuner
edit
Autoscroll
slow
fast
+/-
esc
set tempo
stop
Author
Difficulty
intermediate
-------------------------------------------------------------------------------
                           GHOSTING - Mother Mother
-------------------------------------------------------------------------------
Tabbed by: theducvu
E-mail: vutheduc96@gmail.com

Yeah... I know there are other pretty good versions already, but unfortunately
they're not as precise/complete as I like them. I want to give everyone the most
accurate, completest version, with the solo and everything. This is just as Ryan
plays live. Have fun!

Live version for reference: https://www.youtube.com/watch?v=DSEIK2pJstk

Tuning: Standard (EADGBe)


[Intro]
e|------------------------------------------------------|
B|------------------0-----------------------------------|
G|------------8-------------------------8--7------------|
D|---------6-------------------------6------------------|
A|------9-------------------------9---------------------|
E|---7-------------------------0------------------------|

e|----------------------------------------------------------------2----------|
B|------------------------------------------------------------0---0----------|
G|--------------------4----------------4-------------------2------2----------|
D|-----------------6----------------4-----4-------------1---------1----------|
A|--------------6------------0-1-2-------------------2------------2----------|
E|---0-1-2-3-4--------------------------------2b3r0--------------------------|
                                                                   (let ring)
e|---------------------------------------------------------------------------|
B|--------------------------------------------------------------------0------|
G|---8----------8------8----------8------8----------8------8-----------------|
D|----------6-----------------6-----------------6-----------------6----------|
A|--------9-------9---------9-------9---------9-------9---------9-------9----|
E|---7--------7--------7--------7--------7--------7--------7--------7--------|
Tricky, but just think of these as five notes in regular succession:
     x    . . . . .    x    . . . . .    x    . . . . .    x    . . . . .
e|---------------------------------------------------------------------------|
B|---------------------------------------------------------0-----------------|
G|---8----------8------8----------8------8----------8------8-----------------|
D|----------6-----------------6-----------------6----------------------------|
A|--------9-------9---------9-------9---------9-------9----------------------|
E|---7--------7--------7--------7--------7--------7--------7-----------------|
                                                           (let ring)
[Verse]
e|---------------------------------------------------------------------------|
B|---------------------------------------------------------------------------|
G|---8----------8------8----------8------8----------8------8---------8-------|
D|----------6-----------------6-----------------6----------------6------0----|
A|--------9-------9---------9-------9---------9-------9--------9----------6--|
E|---7--------7--------7--------7--------0--------0--------0-------0---------|
    (I've been ghosting...)                                         (..along)
e|---------------------------------------------------------------------------|
B|---------------------------------------------------------------------------|
G|---4----------6-------2--------2-------1----------1------1--------1--------|
D|----------6------------------1-----1----------2----------------2-----------|
A|--------6-------6-----2----2-----2----------2-------2--------2-------2-----|
E|---4--------4--------------------------0--------0--------0-------0---------|
     (Ghost in your...)
e|---------------------------------------------------------------------------|
B|---4----------4-------4---------4------------------------------------------|
G|----------4-----------------4----------1----------1------1-----------------|
D|--------4-------4---------4-------4-----------2----------------------------|
A|---2--------2---------2-------2-------------2-------2--------2---5---6-----|
E|---------------------------------------0--------0--------0-----------------|
     (When you're tossing...)                                 (..your sleep)
e|---------------------------------------------------------0---0-0-0---0-----|
B|---------------------------------------------------------0---0-0-0---0-----|
G|---4----------6-------2--------2-------1----------1------1---1-1-1---1-----|
D|----------6------------------1-----1----------2----------2---2-2-2---2-----|
A|--------6-------6-----2----2-----2----------2-------2----2---2-2-2---2-----|
E|---4--------4--------------------------0--------0--------0---0-0-0---0-----|
     (It's because...)                                 (...your dreams)
[Chorus] (chord progression: E - F#m - B - E)
e|---0----0-0-0-0-0-----0----0-0-0-0-2---2----2-2-2-2-2----2---2-2-2-2-2-----|
B|---0----0-0-0-0-0-----0----0-0-0-0-2---2----2-2-2-2-2----2---2-2-2-2-4-----|
G|---1----1-1-1-1-1-----1----1-1-1-1-3---3----3-3-3-3-3----3---3-3-3-3-4-----|
D|---2----2-2-2-2-2-----2----2-2-2-2-4---4----4-4-4-4-4----4---4-4-4-4-4-----|
A|---2----2-2-2-2-2-----2----2-2-2-2-4---4----4-4-4-4-4----4---4-4-4-4-2-----|
E|---0----0-0-0-0-0-----0----0-0-0-0-2---2----2-2-2-2-2----2---2-2-2-2-------|
     (And this is why..)
e|---2----2-2-2-2-2-----2----2-2-2-2-0---0----0-0-0-0-0----0---0-0-0-0-0-----|
B|---4----4-4-4-4-4-----4----4-4-4-4-0---0----0-0-0-0-0----0---0-0-0-0-0-----|
G|---4----4-4-4-4-4-----4----4-4-4-4-1---1----1-1-1-1-1----1---1-1-1-1-1-----|
D|---4----4-4-4-4-4-----4----4-4-4-4-2---2----2-2-2-2-2----2---2-2-2-2-2-----|
A|---2----2-2-2-2-2-----2----2-2-2-2-2---2----2-2-2-2-2----2---2-2-2-2-2-----|
E|-----------------------------------0---0----0-0-0-0-0----0---0-0-0-0-0-----|
     (To leave your house...)
e|---0----0-0-0-0-0-----0----0-0-0-0-2---2----2-2-2-2-2----2---2-2-2-2-2-----|
B|---0----0-0-0-0-0-----0----0-0-0-0-2---2----2-2-2-2-2----2---2-2-2-2-4-----|
G|---1----1-1-1-1-1-----1----1-1-1-1-3---3----3-3-3-3-3----3---3-3-3-3-4-----|
D|---2----2-2-2-2-2-----2----2-2-2-2-4---4----4-4-4-4-4----4---4-4-4-4-4-----|
A|---2----2-2-2-2-2-----2----2-2-2-2-4---4----4-4-4-4-4----4---4-4-4-4-2-----|
E|---0----0-0-0-0-0-----0----0-0-0-0-2---2----2-2-2-2-2----2---2-2-2-2-------|
     (You don't need poltergeist...)
e|---2----2-2-2-2-2-----2----2-2-2-2-0---0-----------------------------------|
B|---4----4-4-4-4-4-----4----4-4-4-4-0---0-----------------------------------|
G|---4----4-4-4-4-4-----4----4-4-4-4-1---1-----------------------------------|
D|---4----4-4-4-4-4-----4----4-4-4-4-2---2-----------------------------------|
A|---2----2-2-2-2-2-----2----2-2-2-2-2---2-----------------------------------|
E|-----------------------------------0---0-----------------------------------|
     (You don't need treats...)          (and you don't need-)
[repeat the progression with slightly different strumming pattern - see video]
A lot of "you don't need tricks/treats", then comes the part before the solo:
e|---2-----------------------------------------------------------------------|
B|---2---------------------------------4------4---------4------4-------------|
G|---3---------------------------------4----------4-----4----------4---------|
D|---4---------------------------------4--------4-------4--------4-----------|
A|---4-----------------------------2--------2-------2--------2---------------|
E|---2-----------------------------------------------------------------------|
   (tricks, and you don't need... me...)
e|-------------------------------------------------------------------------------|
B|-------0----------0------------------------------------------------------------|
G|-------1------1--------------------------------4-------4-----------2----2------|
D|-------2--------2------------------------------6---------6\--------1------1----|
A|-------------------------2----5----6-----------------6----------2--------------|
E|---0--------0-------0----------------------4--------------------------2b----p0-|

e|-------------------------------------------------------------------------------|
B|------------------0-----------------------4------4---------4------4------------|
G|-------1------1---------------------------4----------4-----4----------4--------|
D|-------2--------2-------------------------4--------4-------4--------4----------|
A|-------2------------2/-4------2-------2--------2-------2--------2--------------|
E|--(0)-------0------------------------------------------------------------------|
                                      (me...)
e|---------------------------------------|
B|-------0----------0--------------------|
G|-------1------1------------------------|
D|-------2--------2----------------------|
A|-------------------------2----5----6---|
E|---0--------0-------0------------------|
[Solo!] (accurate tempo)
e|--------------------------0---0---0---0---0---0---0---0---0-0-------|
B|------------------------4---7---8---7---5---4---5---7---8---9-------|
G|----------------3---4-6---------------------------------------------|
D|--------------5---6-------------------------------------------------|
A|----5---4-5-6-------------------------------------------------------|
E|--4---7-------------------------------------------------------------|
(yea that's it)
[Bridge] (I can't figure out some of the exact chord shapes he plays in the vid,
but this sounds right. If anyone can help with the actual chords, it'll be much appreciated)
e|---4---------------4---------------4---------------4----------------|
B|---5---5---------5-5---5---------5-5---5---------5-5---5---------5--|
G|---6---6-----6-----6---6-----6-----6---6-----6-----6---6-----6------|
D|---6---6-------6---6---6-------6---6---6-------6---6---6-------6----|
A|---4-------4-------4-------4-------4-------4-------4-------4--------|
E|--------------------------------------------------------------------|
    (hey...)
e|---0---------------0---------------0--------------------------------|
B|---5-------------4-5-------------4-5--------------------------------|
G|---5---5-----5-----5---5-----5-----5--------------------------------|
D|---4---4-------4---4---4-------4---4--------------------------------|
A|---x---------------x---x-----------x--------------------------------|
E|---5-------5-------5-------5-------5--------------------------------|
    (stay...)                           (I'm just a ghost...)
e|---0---0---0---0---0---0---0---0---0---0---0---0---0---0---0---0----|
B|---5---5---5---5---5---5---5---5---5---5---5---5---5---5---5---5----|
G|---4---4---4---4---4---4---4---4---4---4---4---4---4---4---4---4----|
D|---2---2---2---2---2---2---2---2---2---2---2---2---2---2---2---2----|
A|---x---x---x---x---x---x---x---x---x---x---x---x---x---x---x---x----|
E|---3---3---3---3---3---3---3---3---3---3---3---3---3---3---3---3----|
    (grave...)
e|---2---2---2---2---2---2---2---2---2---2---2---2---2---2---2---2----|
B|---2---2---2---2---2---2---2---2---2---2---2---2---2---2---2---2----|
G|---3---3---3---3---3---3---3---3---3---3---3---3---3---3---3---3----|
D|---2---2---2---2---2---2---2---2---2---2---2---2---2---2---2---2----|
A|---4---4---4---4---4---4---4---4---4---4---4---4---4---4---4---4----|
E|---2---2---2---2---2---2---2---2---2---2---2---2---2---2---2---2----|
    (grave...)
e|---5---5---5---5---5---5---5---5---5---5---5---5---5---5---5---5----|
B|---5---5---5---5---5---5---5---5---5---5---5---5---5---5---5---5----|
G|---5---5---5---5---5---5---5---5---5---5---5---5---5---5---5---5----|
D|---7---7---7---7---7---7---7---7---7---7---7---7---7---7---7---7----|
A|---7---7---7---7---7---7---7---7---7---7---7---7---7---7---7---7----|
E|---5---5---5---5---5---5---5---5---5---5---5---5---5---5---5---5----|
    (hair...)
e|---0---0---0---0---0---0---0---0---0---0---0---0---0---0---0---0----|
B|---5---5---5---5---5---5---5---5---5---5---5---5---5---5---5---5----|
G|---4---4---4---4---4---4---4---4---4---4---4---4---4---4---4---4----|
D|---2---2---2---2---2---2---2---2---2---2---2---2---2---2---2---2----|
A|---x---x---x---x---x---x---x---x---x---x---x---x---x---x---x---x----|
E|---3---3---3---3---3---3---3---3---3---3---3---3---3---3---3---3----|
    (stairs)
e|---2---2---2---2---2---2---2---2---2---2---2---2---2---2---2---2----|
B|---2---2---2---2---2---2---2---2---2---2---2---2---2---2---2---2----|
G|---3---3---3---3---3---3---3---3---3---3---3---3---3---3---3---3----|
D|---2---2---2---2---2---2---2---2---2---2---2---2---2---2---2---2----|
A|---4---4---4---4---4---4---4---4---4---4---4---4---4---4---4---4----|
E|---2---2---2---2---2---2---2---2---2---2---2---2---2---2---2---2----|
    (sweet...)
e|---1---1---1---1---1---1---1---1---1---1---1---1---1---1---1---1----|
B|---1---1---1---1---1---1---1---1---1---1---1---1---1---1---1---1----|
G|---2---2---2---2---2---2---2---2---2---2---2---2---2---2---2---2----|
D|---1---1---1---1---1---1---1---1---1---1---1---1---1---1---1---1----|
A|---3---3---3---3---3---3---3---3---3---3---3---3---3---3---3---3----|
E|---1---1---1---1---1---1---1---1---1---1---1---1---1---1---1---1----|
    (me...)

[Back to Chorus]


************************************

| r    Release
| b    Bend
| \    Slide down
| p    Pull-off
| /    Slide up
| (n)  Ghost note
| x    Dead note

************************************

            
            
Suggest correction
Creating personal tab
Creating personal tab
You can edit any tab online and save it as your Personal.

You can edit, replace or remove any tab part or add personal notes – all changes will be seen only by you.

Personal tabs can be accessed anytime from any device, even offline.
Learn more »
comments
print report bad tab
6 comments total. Showing first comments.
0 reply
TheSyllogism 10 Nov 13, 2015 01:43 PM

I've got one of the chords in the bridge that you weren't able to figure out,

e|---4---------------4---------------4--------------------------------|
B|---4-------------4-4-------------4-4--------------------------------|
G|---5---5-----5-----5---5-----5-----5--------------------------------|
D|---4---4-------4---4---4-------4---4--------------------------------|
A|---6---6-----------6---6-----------6--------------------------------|
E|---4-------4-------4-------4-------4--------------------------------|
(stay...) (I'm just a ghost...)


to me, sounds (and looks) like:

e|---0---------------0---------------0--------------------------------|
B|---5-------------4-5-------------4-5--------------------------------|
G|---5---5-----5-----5---5-----5-----5--------------------------------|
D|---4---4-------4---4---4-------4---4--------------------------------|
A|---x---------------x---x-----------x--------------------------------|
E|---5-------5-------5-------5-------5--------------------------------|
(stay...) (I'm just a ghost...)


Cheers!

0 reply
Jtaks 12 Feb 01, 2017 07:30 PM

Based on the video I think the G chord in bridge should be fingered like this:

e|---0
B|---5
G|---4
D|---2
A|---x
E|---3
(grave...) / (stairs...)

instead of this:

e|---3
B|---3
G|---4
D|---3
A|---5
E|---3
(grave...) / (stairs...)

Let me know what you think. Great job btw!

0 reply
Ginko1228 10 Mar 03, 2017 12:04 AM

Really great tab!! As far as the solo, I think he plays it with an open high e like so:
e|------------------------------0---0---0---0---0---0---0---0-0-------|
B|------------------------4-5-7---8---7---5---4---5---7---8---9-------|
G|----------------3---4-6---------------------------------------------|
D|--------------5---6-------------------------------------------------|
A|----5---4-5-6-------------------------------------------------------|
E|--4---7-------------------------------------------------------------|
Other than that it sounds pretty much perfect.

guest
You may want to rate the tab now too:
select rating
Wanna post a correction for this tab? Suggest correction