Oops, an error
Loading. Please wait.

Hayloft Tab

version 1
version 1

Whole song

Interactive

27,894 views 54 this week
8 commentsread comments
1 2 3 4 5
x 10
add to favorites
launch autoscroll
font size
0
reset
how to read this tab
guitar tuner
Autoscroll
slow
fast
+/-
esc
set tempo
stop
Help us to improve Ultimate-Guitar.com Take our survey!
×
Author
#----------------------------------PLEASE NOTE--------------------------------#
#This file is the author's own work and represents their interpretation of the#
#song. You may only use this file for private study, scholarship, or research.#
#-----------------------------------------------------------------------------#
#-- File created with Instab - http://www.pconline.com/~smcarey/instab.html --#
#-----------------------------------------------------------------------------#

Author/Artist: Mother Mother
Title: Hayloft
Album: O My Heart
Transcribed by: Rory Lidstone
Email: rlidstone@gmail.com

Awesome song. And, surprisingly, pretty simple.
Standard tuning.

Main Riff:
------------------------------------------------------------------------------|
------------------------------------------------------------------------------|
------------------------------------------------------------------------------|
------7-5-7-5-7-5-7-5--7---7---7---7-6--7---7---7---7---7-6-7-6-7-6-7-6-------|
------------------------------------------8---8---8---8-----------------------|
-------------------------8---8---8--------------------------------------------|

This comes in the second time, I think:
------------------------------------------------------------------------------|
------------------------------------------------------------------------------|
------2~~~~~~~~~~~~~~~~~~~~~~~~~~~~~~~~~~~~~~~~~~~~~~~~~~~~~~~~~~~~~~~~-------|
------2~~~~~~~~~~~~~~~~~~~~~~~~~~~~~~~~~~~~~~~~~~~~~~~~~~~~~~~~~~~~~~~~-------|
------0~~~~~~~~~~~~~~~~~~~~~~~~~~~~~~~~~~~~~~~~~~~~~~~~~~~~~~~~~~~~~~~~-------|
------------------------------------------------------------------------------|


Bass part (I think that's it for the entire song):
------------------------------------------------------------------------------|
------------------------------------------------------------------------------|
------------------------------------------------------------------------------|
------5-----5----/-----8-----8-----/----1-----1-----/---4-----4---------------|

Main riff variation (a bit tricky):
------------------------------------------------------------------------------|
------------------------------------------------------------------------------|
--------------------------------------5---------------------------------------|
------7-5-7-5-7-----5--7-5-7------5-7----7---7---7---7----7-6-7-6-7-6-7-6-----|
------------------7-------------7----------8---8---8---8----------------------|
----------------8-------------8-----------------------------------------------|

The "Ahhh yaahh yah yah!" part:                   First ending:
----------------5--------------5------------5-7--|-----7--5-------------------|
----5-5--5-6-8-----5-5--5-6-8-----6-6--6-8-------|--5--------8----------------|
-------------------------------------------------|----------------------------|
-------------------------------------------------|----------------------------|
-------------------------------------------------|----------------------------|
-------------------------------------------------|----------------------------|

Second ending (I suggest some slight bending here, whatever, though):
---------------------------------|
----4b-r-4br-4br-4br-4br-4br-----|
---------------------------------|
---------------------------------|
---------------------------------|
---------------------------------|

BEW!:     Jangly bit (Chords for the entire song for you coffeehousers):
---------|--------------------------------------------------------------------|
---------|--1--1--1-1-1-1--1--1--1-1-1-1--1--1--1-1-1-1--4--4--4-4-4-4--------|
---------|--2--2--2-2-2-2--0--0--0-0-0-0--2--2--2-2-2-2--5--5--5-5-5-5--------|
---------|--2--2--2-2-2-2--2--2--2-2-2-2--3--3--3-3-3-3--6--6--6-6-6-6--------|
----7-\--|--0--0--0-0-0-0--3--3--3-3-3-3--3--3--3-3-3-3--6--6--6-6-6-6--------|
---------|--------------------------------1--1--1-1-1-1--4--4--4-4-4-4--------|

And the muted part... Don't know why I tabbed it, really:
-----x--x--x-x-x-x------------------------------------------------------------|
-----x--x--x-x-x-x------------------------------------------------------------|
-----x--x--x-x-x-x-etc.-------------------------------------------------------|
-----x--x--x-x-x-x------------------------------------------------------------|
-----x--x--x-x-x-x------------------------------------------------------------|
-----x--x--x-x-x-x------------------------------------------------------------|
 "Young lovers with their legs tied up in knots!"
Suggest correction
comments
print report bad tab
8 comments total. Showing first comments.
+1 reply
icronic 624 Mar 09, 2010 12:21 PM

Right notes, but there's a much easier way to play it.

     E   E  E   E  E   E  E   E     E  E  E  E  E  E  E  E   
E||------------------------------|--------------------------|
B||------------------------------|--------------------------|
G||------------------------------|--------------------------|
D||--7------7------7------7------|--7-----7-----7-----7-----|
A||-----10-----10-----10-----10--|--------------------------|
E||------------------------------|-----8-----8-----8-----8--|

E E E E E E E E E E E E E E E E
------------------------------|--------------------------||
------------------------------|--------------------------||
------------------------------|--------------------------||
--7------7------7------7------|--7-----7-----7-----7-----||
-----11-----11-----11-----11--|-----8-----8-----8-----8--||
------------------------------|--------------------------||


And the variation is like this:
E||-----------------------------|-----------------------------|
B||-----------------------------|-----------------------------|
G||-----------------------------|-----------------------------|
D||--7------7------7------------|--7------7------------7--10--|
A||-----10-----10--------7--10--|-----10--------7--10---------|
E||-------------------8---------|------------8----------------|

E E E E E E E E E E E E E E E E
--------------------------|------------------------------||
--------------------------|------------------------------||
--------------------------|------------------------------||
--7-----7-----7-----7-----|--7------7------7------7------||
-----8-----8-----8-----8--|-----11-----11-----11-----11--||
--------------------------|------------------------------||

0 reply
FiNNi 10 Jun 07, 2010 11:12 PM

Icronic is right, even if you watch the music video, that looks like what the guitarist's playing. Great tab though, and technically that isn't a mistake haha

0 reply
Sister Bob 226 Jun 28, 2010 03:03 PM

Oh he makes a great point and yeah that is what Ryan plays... I've just been too lazy to update it. I'll fix it at some point, though.

To be fair, I'm pretty comfortable playing it as I wrote it. Ah well.

guest
You may want to rate the tab now too:
select rating
Wanna post a correction for this tab? Suggest correction