Oops, an error
Loading. Please wait.

Hayloft Tab

version 2
version 2

Whole song

Interactive

2,590 views 3 this week
no commentswrite comment
1 2 3 4 5
accurate
x 3
add to favorites
launch autoscroll
font size
0
reset
how to read this tab
guitar tuner
Autoscroll
slow
fast
+/-
esc
set tempo
stop
Help us to improve Ultimate-Guitar.com Take our survey!
×
Contributor
-------------------------------------------------------------------------------
			     HAYLOFT - Mother Mother
-------------------------------------------------------------------------------
Tabbed by: Jon Capus
Email: j.capus@hotmail.com

Tuning: Standard

Intro
|-----------------------------------------------------------------|
|-----------------------------------------------------------------|
|-----------------------------------------------------------------|
|-7-5-7-5-7-5-7-5-7-0-7-0-7-0-7-0-7---7---7---7---7-6-7-6-7-6-7-6-| x2
|-----------------------------------8---8---8---8-----------------|
|(5)--------------------------------------------------------------|
  /\ this note is what a second guitar plays and holds on the second iteration

Verse 1
|-----------------------------------------------------------------|
|-----------------------------------------------------------------|
|-------------------------------5---------------------------------|
|-7-5-7-5-7-----5-7-0-7-0---5-7---7---7---7---7---7-6-7-6-7-6-7-6-| x2
|-----------5-7-----------7---------8---8---8---8-----------------|
|-----------------------------------------------------------------|

Chorus Melody Riff
|--------------5--------------5--------------5-----7--5-----------|
|-5--5---5-7-8----5--5--5-7-8---5--5---5-7-8---5---------8--------|
|-----------------------------------------------------------------| x2
|-----------------------------------------------------------------|
|-----------------------------------------------------------------|
|-----------------------------------------------------------------|

|----------|
|-5~~~-----| with bend/vibrato on this note before going back into
|----------|
|----------|
|----------|
|----------|

Verse 2
|-----------------------------------------------------------------|
|-----------------------------------------------------------------|
|-----------------------------------------------------------------|
|-----------------------------------------------------------------|
|-----------------------------------------------------------------|
|-12\-------------------------------------------------------------|
      Sadly I can't hear most of what's going on but it sounds like picking/strumming
		chords are basically jazzy versions of A, C, F, G#m

Only other thing you need to play this song are the power chords
with different strumming patterns at different times in the song
|---------------------------------|
|---------------------------------|
|---------------------------------| the bass notes are emphasized too,
|-7-7----10-10----3-3----6-6------| for some parts you might be able to
|-7-7----10-10----3-3----6-6------| get away with just them
|-5-5-----8--8----1-1----4-4------|

And at one point in the song the main riff (Verse 1) is half a step up
|-----------------------------------------------------------------|
|-----------------------------------------------------------------|
|-------------------------------6---------------------------------|
|-8-6-8-6-8-----6-8-0-8-0---6-8---8---8---8---8---8-7-8-7-8-7-8-7-| x2
|-----------6-8-----------8---------9---9---9---9-----------------|
|-----------------------------------------------------------------|

And that's basically all you need to play this song.
Enjoy! And hopefully this'll help someone to figure out any of the 
parts I may have missed or was unable to hear.

************************************

| /   slide up
| \   slide down
| h   hammer-on
| p   pull-off
| ~   vibrato
| +   harmonic
| x   Mute note
| b   Bend

************************************
comments
We did not receive enough feedback on this tab! Please rate:
print report bad tab
1 2 3 4 5
I want to post or [tab]
guest
You may want to rate the tab now too:
select rating
Please do not post tabs as comments. Select "correction" instead!