Oops, an error
Loading. Please wait.

Legs Away Tab

version 2
version 2

Whole song

833 views 1 this week
no commentswrite comment
1 2 3 4 5
please rate
add to favorites
launch autoscroll
font size
0
reset
how to read this tab
guitar tuner
Autoscroll
slow
fast
+/-
esc
set tempo
stop
Help us to improve Ultimate-Guitar.com Take our survey!
×
Author
Difficulty
intermediate
Song: Legs Away
Artist: Mother Mother
Album: Touch Up

Intro/Verse:
          Em              G               C               G       G/F#
e|----||-------------------------------------------------------------------||
B|----||o---5-----5----5----3-----3----3----1-----1----1----0-----0----0--o||
G|----||-------0-----0---0-----0-----0---0-----0-----0---0-----0-----0-----||
D|----||-------------------------------------------------------------------||
A|----||o-------------------------------2-3-3-3-3-3-3-3-3-----------------o||
E|12\-||--0-0-0-0-0-0-0-0-3-3-3-3-3-3-3-------------------3-3-3-3-2-2-2-2--||
          ^Palm Mute all bass (E/A string) notes, let the rest ring out.
 
When entering a verse:
   E7
e|---------0----0----------0---<12>-----|
B|---0--------3---3--0------<12>--------|
G|------1---------------1/--------------|
D|--------------------------------------|
A|--------------------------------------|
E|-0-0-0-0-0-0-0-0-0-0-0-0----------12\-|


When entering a chorus:
   E7
e|---------0----0----------0--------|
B|---0--------3---3--0--------------|
G|------1---------------1/----------|
D|----------------------------------|
A|----------------------------------|
E|-0-0-0-0-0-0-0-0-0-0-0-0---0-3-4--|

Chorus:
   Am7     G#6+5   Am7     G#6+5   C       B7      C       E5
e|-----------------------------------------------------------------|
B|---------5-------------------------1-------0-------1-------0-----|
G|-5\------4-------5\-------------------0-------2-------0----------|
D|-5\------3-------5\------3---3-----2---2---1---1---2---2---2---2-|
A|-x-------x-------x-------x---2---3-------2-------3-----------2---|
E|-5\------4-------5\------4-----------3-------2-------3---0-------|
				     

   Am7     G#6+5     Am7   G#6+5   C       B7      C       E5
e|-----------------------------------------------------------------|
B|---------5-5---5---------5---------1-------0-------1-------0-----|
G|-5\------4-4---4---5-5---4------------0-------2-------0----------|
D|-5\------3-3---3---5-5---3---3-----2---2---1---1---2---2---2-----|
A|-x-------x-x---x---x-x---x---2---3-------2-------3---------------|
E|-5\------4-4---4---5-5---4-----------3-------2-------3---0-------|
						        
Outro:
   Fdim7         G#dim7        Bdim7 Ddim7 Fdim7   G#dim7
e|----------------------------------------------------|
B|---------0-------------3---------6----9-----12---15-|
G|-----1-------------4-------------7----10----13---16-|
D|---0-------------0-------------0-----0-----0--------|
A|----------------------------------------------------|
E|-1-----1-----1/4-----4-----4/7-----10----13------16-|

     Am    AmM7    Am7     Am6
e|---5-----4----4--3----3--2----2---------------------|
B|----------------------------------------------------|
G|------5-----5-------5-------5-----------------------|
D|----------------------------------------------------|
A|---0-0-0-0-0-0-000-0-0-000-0-0----------------------|
E|-------------------------------3b-0-----------------|
Suggest correction
What's this?
You can suggest a correction to this tab. Community and Mods will review your correction and vote to approve or reject it.
comments
We did not receive enough feedback on this tab! Please rate:
print report bad tab
1 2 3 4 5
guest
You may want to rate the tab now too:
select rating
Please do not post tabs as comments. Select "correction" instead!