Oops, an error
Loading. Please wait.

Love And Truth Tab

3,917 views 30 this week
1 commentread comment
1 2 3 4 5
excellent!
x 6
add to favorites
launch autoscroll
font size
0
reset
how to read this tab
guitar tuner
Tab Pro tools
  • play this tab
  • loop segment
  • change instrument
  • show fretboard
  • metronome
Autoscroll
slow
fast
+/-
esc
set tempo
stop
Contributor
Difficulty
novice
-------------------------------------------------------------------------------
                             Love and Truth - Mother Mother
-------------------------------------------------------------------------------
Tabbed by: DreadFace
Email: verbatim.js@gmail.com
Youtube: http://www.youtube.com/user/dreadface101

I love mother mother and this is one of my favorite songs by them.  I saw
that there was no tab for it so I decided to make my own. This is a fun and
 easy song once you get the fingering down for the intro. This tab was made
 mostly by ear with help from watching a videos. This may not be 100%
accurate but it sounds perfect! Comment below if you catch any mistakes! 

Have fun playing and please rate!!!

Tuning: EADGBe
| /   slide up
| \   slide down
| h   hammer-on
| p   pull-off
| ~   Hold note
| x   Mute note

Intro Riff

e|--x------2p0-----------------------------|------------------2--|
B|--x--/4----------2p0---------------------|---------------1-----|
G|--x----------4p3---------2p0-------------|------------2--------|
D|--x------------------5p4-----2p1-5p4-2p1-|---------1-----------|
A|--x--------------------------------------|-----0h2-------------|
E|--x--------------------------------------|-2h3-----------------|


Verse
               ^ <- Upstroke
e|---------------------------------------------------|
B|--8--8--8--8-7-8--8--8--8--7--7--7--7--4--4--4--4--|
G|--9--9--9--9-8-9--9--9--9--7--7--7--7--4--4--4--4--|    
D|--9--9--9--9-8-9--9--9--9--7--7--7--7--4--4--4--4--|     
A|--7--7--7--7-6-7--7--7--7--5--5--5--5--2--2--2--2--|      
E|---------------------------------------------------|       
                        Love and Truth...                        
e|----------------------------------|                      
B|--8--8--8--7--6--------7---5---4--|                       
G|--9--9--9--7--6--------7---5---4--|  x 2                    
D|--9--9--9--7--6--------7---5---4--|  
A|--7--7--7--5--4--------5---3---2--|
E|----------------------------------|


Chorus
              Am
 Love and truth
D                       G        Em
 Why are they so hard to achieve
              Am     D 
 Love and truth
 G
 They're such hot commodities
     Em
 But come in such small quantities
Am        D                 
 Love and truth where are 

   you?---     Where are you
e|----3---3---5---5------------------|
B|----0---0---0---0---5----5--4---4--|
G|--------------------0----0--0---0--|
D|--2---2---3---3-------------x---x--|
A|------------------3----3----2---2--|
E|-----------------------------------|


Solo

e|--x------2p0------------------------------|
B|--x--/4----------2p0----------------------|
G|--x----------4p3---------2p0--------------|
D|--x------------------5p4-----2p1-5p4-2p1--|
A|--x---------------------------------------|
E|--x---------------------------------------|

e|-----------------------------|
B|-----------------------------|
G|----------3--4--3--4-3-4--4--|
D|----------x--x--x--x-x-x--x--|
A|------0h2-1--2--1--2-1-2--2--|
E|--2h3------------------------|

e|-----------------------------------------------------|
B|----8~-8-----8------7~-7-----7------8h10p8--7--6--5--|
G|-----------------------------------------------------|
D|--9------8-9---8898------8-9---8898--------9--8--7---|
A|-----------------------------------------------------|
E|-----------------------------------------------------|

e|------------------------------------|
B|--5-4-5-5h7p5-----7--5--4-5-7-8-12--|
G|--------------6---7--5--4-5-7-8-12--|
D|----------------7-7--5--4-5-7-8-12--|
A|------------------5--3--2-3-5-6-10--|
E|------------------------------------|


Verse
               ^ <- Upstroke
e|---------------------------------------------------|
B|--8--8--8--8-7-8--8--8--8--7--7--7--7--4--4--4--4--|
G|--9--9--9--9-8-9--9--9--9--7--7--7--7--4--4--4--4--|    
D|--9--9--9--9-8-9--9--9--9--7--7--7--7--4--4--4--4--|     
A|--7--7--7--7-6-7--7--7--7--5--5--5--5--2--2--2--2--|      
E|---------------------------------------------------|       
                        Love and Truth...                        
e|----------------------------------|                      
B|--8--8--8--7--6--------7---5---4--|                       
G|--9--9--9--7--6--------7---5---4--|                      
D|--9--9--9--7--6--------7---5---4--|  
A|--7--7--7--5--4--------5---3---2--|
E|----------------------------------|
    La la la Part          
e|---------------------------------------------------|
B|--8--8--8--8-8-8--8--8--8--7--7--7--7--4--4--4--4--|
G|--9--9--9--9-9-9--9--9--9--7--7--7--7--4--4--4--4--|    
D|--9--9--9--9-9-9--9--9--9--7--7--7--7--4--4--4--4--|     
A|--7--7--7--7-7-7--7--7--7--5--5--5--5--2--2--2--2--|      
E|---------------------------------------------------|       
                        Love and Truth...                        
e|------------------------------|                      
B|--8---7---6--------7---5---4--|                       
G|--9---7---6--------7---5---4--|                     
D|--9---7---6--------7---5---4--|  
A|--7---5---4--------5---3---2--|
E|------------------------------|


Chorus
                Am
 Oh, love and truth
D                       G                Em
 Why is it that I cannot find these sweet delights
                 Am      D
 Oh, love and truth
   G        
 If everything was up to me
 Em 
 I'd make sure that there was plenty of 
Am  D      G    Em 
lo--ve and tru--th
Am       D
Love and truth where are 

   you?---
e|----3---3---5---5----------------------|
B|--------------------5---5--4444444444--|
G|---------------------------0000000000--|
D|--2---2---3---3------------xxxxxxxxxx--|
A|------------------3---3----2222222222--|
E|---------------------------------------|

e|--3-3-3-3/5-5-5-5------------------|--3-3-3-3/5~----------|
B|--0-0-0-0/0-0-0-0-5-5-5-5-4-4-4-4--|--0-0-0-0/0~--5~--4~--|
G|--x-x-x-x/x-x-x-x-0-0-0-0-0-0-0-0--|--x-x-x-x/x~--0~--0~--|
D|--2-2-2-2/3-3-3-3-x-x-x-x-x-x-x-x--|--2-2-2-2/3~--x~--x~--|
A|------------------3-3-3-3-2-2-2-2--|--------------3~--2~--|
E|-----------------------------------|----------------------|


Outro

e|--x------2p0-----------------------------|--------------|
B|--x--/4----------2p0---------------------|----------8~--|
G|--x----------4p3---------2p0-------------|----------9~--|
D|--x------------------5p4-----2p1-5p4-2p1-|----------9~--|
A|--x--------------------------------------|----------7~--|
E|--x--------------------------------------|-/2-2h3~------|
comments
print report bad tab
1 comment total.
+2 reply
greendaycool (: wrote on June 16 2012, 05:32 pm

You almost have the intro. Just that bit at the end it slightly off. I think it's something more like


e|--x------2p0-----------------------------|--------------------2---|
B|--x--/4----------2p0---------------------|------------------1-----|
G|--x----------4p3---------2p0-------------|----------------2-------|
D|--x------------------5p4-----2p1-4p2-----|-1------------1---------|
A|--x--------------------------------------|---2-------1h2----------|
E|--x--------------------------------------|-----3-2h3--------------|

I want to post or [tab]
guest
You may want to rate the tab now too:
select rating
Please do not post tabs as comments. Select "correction" instead!