Oops, an error
Loading. Please wait.

Neighbour Tab

version 1
version 1

Intro

6,411 views 6 this week
1 commentread comment
1 2 3 4 5
worth learning
x 3
add to favorites
launch autoscroll
font size
0
reset
how to read this tab
guitar tuner
Tab Pro tools
  • play this tab
  • loop segment
  • change instrument
  • show fretboard
  • metronome
Autoscroll
slow
fast
+/-
esc
set tempo
stop
NEIGHBOUR
MOTHER MOTHER

[INTRO]

-5---5-4---4-4---4-3--4--5---5-5--4-4--|
-5---5-4---4-5---5-4--4--5---5-5--4-4--|
-6---6-5---5-6---6-5-----6---6-6--5-5--|
-7---7-6---6-6---6-5-----7---7-7--6-6--|
-7---7-6---6-4---4-3-----7---7-7--6-6--|
-5---5-4---4-------------5---5-5--4-4--|

-4-4-4---4-4--4-4-4---4-4--4-4-4---4-4--4-4-4---|
-5-5-5---5-5--5-5-5---5-5--5-5-5---5-5--5-5-5---|
-6-6-6---6-6--6-6-6---6-6--6-6-6---6-6--6-6-6---|
-6-6-6---6-6--6-6-6---6-6--6-6-6---6-6--6-6-6---|
-4-4-4---4-4--4-4-4---4-4--4-4-4---4-4--4-4-4---|
------------------------------------------------|

-------------------------|
-----5-----------5-------|
---6---6-4-6---6---6-4-6-|
-------------------------|
-4-----------------------|
-------------------------|

-------------------------------------------------|
----5-----------5-----------5-----------5--------|
--6---6-4-6---6---6-4-6---6---6-4-6---6---6-4-6--| (x3)
-------------------------------------------------|
-------------------------------------------------|
-------------------------------------------------|

-4-4-4---4-4--4-4-4---4-4--4-4-4---4-4--4-4-4--|
-5-5-5---5-5--5-5-5---5-5--5-5-5---5-5--5-5-5--|
-6-6-6---6-6--6-6-6---6-6--6-6-6---6-6--6-6-6--|
-6-6-6---6-6--6-6-6---6-6--6-6-6---6-6--6-6-6--|
-4-4-4---4-4--4-4-4---4-4--4-4-4---4-4--4-4-4--|
-----------------------------------------------|
comments
We did not receive enough feedback on this tab! Please rate:
print report bad tab
1 2 3 4 5
1 comment total.
+1 reply
BetaWaves wrote on August 8 2010, 01:48 pm

Didn't have enough time to go through the whole tab, but this is the correct intro.


-----------4-4---4----------|
---5-5-5-5-5-5-7---5-5-5-5-5|
--6--6-6-6-6-6-----6-6-6-6-6|
----------------------------|
-0---0-----4-4-----0-0-0----|
-------4-4-----4---------4-4|

---|
---|
-6-|
-6-| (listen for strumming)
-4-|
---|

-----5-0-----5-0-----5-0-----5-0-|
---4-----4-4-----4-4-----4-4-----|
---------------------------------| (listen for timing)
---------------------------------|
-0-0-0-0---------4-4-4-4---------|
---------4-4-4-4---------4-4-4-4-|

I want to post or [tab]
guest
You may want to rate the tab now too:
select rating
Please do not post tabs as comments. Select "correction" instead!