Oops, an error
Loading. Please wait.

Oh My Heart Bass Tab

7,606 views 15 this week
no commentswrite comment
1 2 3 4 5
excellent!
x 4
add to favorites
launch autoscroll
font size
0
reset
guitar tuner
Autoscroll
slow
fast
+/-
esc
set tempo
stop
Help us to improve Ultimate-Guitar.com Take our survey!
×
Author
Mother Mother
Oh My Heart
Oh My Heart (2008)

Tuning: Standard


Intro (0:00)

G|---------------------------------------------|
D|---------------------------------------------|
A|----------5666-5-----------------------------| 
E|-66666666-------333333333333-55--------------|

G|---------------------------------------------|  |
D|---------------------------------------------|  |
A|----------5666-------------------------------|  |
E|-66666666------3333333333333-55--------------|  |
                                                  |- x2
G|---------------------------------------------|  |
D|---------------------------------------------|  |
A|----------5666------4444---------------------|  |
E|-66666666------3333------22222222222222-44---|  |

Verse 1 (0:35)

G|---------------------------------------------|  |
D|---------------------------------------------|  |
A|----------5666-------------------------------|  |
E|-66666666------3333333333333-55--------------|  |
                                                  |- x2
G|---------------------------------------------|  |
D|---------------------------------------------|  |
A|----------5666------4444---------------------|  |
E|-66666666------3333------22222222222222-44---|  |

Chorus 1 (1:00)

G|---------------------------------------------|
D|---------------------------------------------|
A|-66----44------------------------------------| x3
E|----33----2222222----------------------------|

G|---------------------------------------------|
D|---------------------------------------------|
A|-66----44------------------------------------| 
E|----33----2222222222222222-44----------------|

Verse 2 (1:20)

G|---------------------------------------------|  
D|---------------------------------------------|  
A|----------5666-------------------------------|  
E|-66666666------3333333333333-55--------------|  
                                                  
G|---------------------------------------------|  
D|---------------------------------------------|  
A|----------56666------4444--------------------|  
E|-66666666-------3333------22222222222222-44--|  

G|---------------------------------------------|  
D|---------------------------------------------|  
A|----------5666-------------------------------|  
E|-66666666------3333333333333-55--------------|  
                                                  
G|---------------------------------------------|  
D|---------------------------------------------|  
A|----------56666------4444--------------------|  
E|-66666666-------3333------2222222222222222---|  

Chorus 2 (1:46)

G|---------------------------------------------|
D|---------------------------------------------|
A|-66----44------------------------------------| x3
E|----33----22-22------------------------------|

G|---------------------------------------------|
D|---------------------------------------------|
A|-66----44------------------------------------| 
E|----33----2222222222222222-44----------------|

Verse 3 (2:04)

G|---------------------------------------------|  
D|---------------------------------------------|  
A|---------56-6--------------------------------|  
E|-6-6-6-6-------3-3-3-3-3-3-3-55--------------|  
                                                  
G|---------------------------------------------|  
D|---------------------------------------------|  
A|----------56-6------4-4------6666666666666666|  
E|-6-6-6-6-------3-3-------2-2-----------------|  

Bridge (2:18)

G|---------------------------------------------|
D|---------------------------------------------|
A|---------------------------------------------| 
E|-6~----7~----6~------------------------------|

Verse 4 (2:25)

G|---------------------------------------------|
D|---------------------------------------------|
A|----------3333-4444444444444444--------------| 
E|-66666666------------------------------------|

G|---------------------------------------------|
D|---------------------------------------------|
A|----------4444-------------------------------| 
E|-22222222------4444-2222222222222222---------|

G|---------------------------------------------|
D|---------------------------------------------|
A|----------3-3--4-4-4-4-4-4-4-4---------------| 
E|-6-6-6-6-------------------------------------|

G|---------------------------------------------|
D|---------------------------------------------|
A|----4~----2~----4~---------------------------| 
E|-5~----2~----5~----2-2-2-2-------------------|

Chorus 3 (2:50)
G|---------------------------------------------|
D|---------------------------------------------|
A|-66----44------------------------------------| x3
E|----33----22-22------------------------------|

G|---------------------------------------------|
D|---------------------------------------------|
A|-66----44------------------------------------| 
E|----33----2222222222222222-55----------------|

Solo (3:08)
G|---------------------------------------------|  
D|---------------------------------------------|  
A|----------6666-------------------------------|  
E|-66666666------3333333333333-55--------------|  
                                                  
G|---------------------------------------------|  
D|---------------------------------------------|  
A|----------6666------4444---------------------|  
E|-66666666------3333------22222222222222------|  

Outro (3:20)
G|---------------------------------------------|  
D|---------------------------------------------|  
A|----------56-6-------------------------------|  
E|-6-6-6-6-------3-3-3-3-3-3-3-55--------------|  
                                                  
G|---------------------------------------------| 
D|---------------------------------------------|  
A|---------56-66-------4-44--------------------|  
E|-6-6-6-6-------3-33-------2~-----------------|  




This is as I hear it, I may have missed a couple 
little fills here and there, but this is pretty 
close.  This is my first tab, I enjoyed making 
it, hope you enjoy playing it!

-Jack
Suggest correction
comments
print report bad tab
guest
You may want to rate the tab now too:
select rating
Wanna post a correction for this tab? Suggest correction