Oops, an error
Loading. Please wait.

Polynesia Tab

version 2
version 2

Whole song

817 views 1 this week
no commentswrite comment
1 2 3 4 5
1 last vote to show rating
add to favorites
launch autoscroll
font size
0
reset
how to read this tab
guitar tuner
Autoscroll
slow
fast
+/-
esc
set tempo
stop
Help us to improve Ultimate-Guitar.com Take our survey!
×
Author
Difficulty
intermediate
Song: Polynesia
Artist: Mother Mother
Album: Touch Up

Standard Tuning

Intro:
 G#                               G#/G        
|-------------------------------------------------------------------|
|-------------------------------------------------------------------|
|-------------------------------------------------------------------|
|-6-6-6-6-6-6-6-6-6-6-6-6-6-6-6-6-6-6-6-6-6-6-6-6-6-6-6-6-6-6-6-6---|
|-6-6-6-6-6-6-6-6-6-6-6-6-6-6-6-6-6-6-6-6-6-6-6-6-6-6-6-6-6-6-6-6---|
|---------------------------------3---3---3---3-3---3---3---3---3---|

  G#/F#                           Emaj7
|-------------------------------------------------------------------|
|-------------------------------------0-------0-------0-------------|
|-------------------------------------1-------1-------1-------------|
|-6-6-6-6-6-6-6-6-6-6-6-6-6-6-6-6-----1-------1-------1-----4-4-6---|
|-6-6-6-6-6-6-6-6-6-6-6-6-6-6-6-6-2---------2-------2-------4-4-6---|
|-2---2---2---2-2---2---2---2---2-0---------0-------0-----0-2-2-4---|

    G#    Emaj7         
|--------------------------------------------------------------------|
|--------------------------------------------------------------------|
|--------------------------------------------------------------------|
|---6---6---6---6---6---6---6---6---6---6---6---6---6---6---6---6----|
|---6---6---6---6---6---6---6---6---6---6---6---6---6---6---6---6----|
|---4-4-4-4-0-0-0-0-4-4-4-4-0-0-0-0-4-4-4-4-0-0-0-0-4-4-4-4-0-0-0-0--|
  PM...............................................................


    B       F#      G               G#      Emaj7   G#      Emaj7       
|--------------------------------------------------------------------|
|-----------------------------------------------------------0-0----|
|---4---4---------------------------------------------------1-1----|
|---4---4---4---4---5---5---5---5---6---6---6---6---6---6---1-1----|
|---2-2-2-2-4---4---5---5---5---5---6---6---6---6---6---6---2-2----|
|-----------2-2-2-2-3-3-3-3-3-3-3-3-4-4-4-4-0-0-0-0-4-4-4-000-0----|
  PM......................................................

    G#    Emaj7         
|--------------------------------------------------------------------|
|--------------------------------------------------------------------|
|--------------------------------------------------------------------|
|---6---6---6---6---6---6---6---6---6---6---6---6---6---6---6---6----|
|---6---6---6---6---6---6---6---6---6---6---6---6---6---6---6---6----|
|---4-4-4-4-0-0-0-0-4-4-4-4-0-0-0-0-4-4-4-4-0-0-0-0-4-4-4-4-0-0-0-0--|
  PM...............................................................

    B               F#          G   Emaj7    
|--------------------------------------------------------------------|
|---------------------------------------0-------0-------0------------|
|---4---4---4---4-4---------------------1-------1-------1------------|
|---4---4---4---4-4-4---4---4---5-5-----1-------1-------1-----4-4-2--|
|---2-2-2-2-2-2-2-2-4---4---4---5-5-2---------2-------2-------4-4-2--|
|-------------------2-2-2-2-2-2-3-3-0---------0-------0-----0-2-2-0--|
  PM................................

    E                               F#              B
|--------------------------------------------------------------------|
|---0-----------------------------------------------4----------------|
|---1-----------------------------------------------4----------------|
|---2-------------------------4-4-6-6---------------4----------------|
|---2-------------------------4-4-6-6---------------2----------------|
|---0-------------------------2-2-4-4--------------------------------|

    E                               F#              B
|--------------------------------------------------------------------|
|---0-----------------------------------------------4----------------|
|---1-----------------------------------------------4----------------|
|---2-------------------------4-4-6-6---------------4----------------|
|---2-------------------------4-4-6-6---------------2----------------|
|---0-------------------------2-2-4-4--------------------------------|

    Emaj7                           F#mM7
|--------------------------------------------------------------------|
|-------0-------0-------0---------------0-------0-------0------------|
|-------1-------1-------1---------------0-------0-------0------------|
|-------1-------1-------1--------------------------------------------|
|---2---------2-------2-------4-4-6-6---------6-------6-------4-4-2--|
|---0---------0-------0-------2-2-4-4---------4-------4-------2-2-0--|

    Emaj7
|-------------------------------------|
|-------0-------0-------0-------------|
|-------1-------1-------1-------------|
|-------1-------1-------1-------------|
|---2---------2-------2-------4-4-----|
|---0---------0-------0-----0-2-2-0---|

    G#    Emaj7
|--------------------------------------------------------------------|
|--------------------------------------------------------------------|
|--------------------------------------------------------------------|
|---6---6---6---6---6---6---6---6---6---6---6---6---6---6---6---6----|
|---6---6---6---6---6---6---6---6---6---6---6---6---6---6---6---6----|
|---4-4-4-4-0-0-0-0-4-4-4-4-0-0-0-0-4-4-4-4-0-0-0-0-4-4-4-4-0-0-0-0--|
  PM...............................................................

    B       F#      G               Emaj7
|---------------------------------------------------------------------|
|---------------------------------------0-------0-------0-------------|
|---4---4-----------4-------------------1-------1-------1-------------|
|---4---4---4---4---5-------------------1-------1-------1-----4-4-----|
|---2-2-2-2-4---4---5---------------2---------2-------2-------4-4-----|
|-----------2-2-2-2-3---------------0---------0-------0-----0-2-2-0---|
  

    E                               G#              B
|---------------------------------------------------------------------|
|---------------------------------------------------4---4---4---4-----|
|---1---1---1---1---1---1---1-----------------------4---4---4---4-----|
|---2---2---2---2---2---2---2-4-4-6-6---6---6---6---4---4---4---4-----|
|---2---2---2---2---2---2---2-4-4-6-6---6---6---6---2---2---2---2-----|
|---0---0---0---0---0---0---0-2-2-4-4---4---4---4-----------------0---|

    E                               G#              B
|---------------------------------------------------------------------|
|---------------------------------------------------4-----------------|
|---1---1---1---1---1---1---------------------------4-----------------|
|---2---2---2---2---2---2-----4-4-6-6---------------4-----------------|
|---2---2---2---2---2---2-----4-4-6-6---------------2-----------------|
|---0---0---0---0---0---0-----2-2-4-4---------------------------------|

    Emaj7                           F#mM7
|--------------------------------------------------------------------|
|-------0-------0-------0---------------0-------0-------0------------|
|-------1-------1-------1---------------0-------0-------0------------|
|-------1-------1-------1--------------------------------------------|
|---2---------2-------2-------4-4-6-6---------6-------6-------4-4-2--|
|---0---------0-------0-------2-2-4-4---------4-------4-------2-2-0--|

    Emaj7
|-------------------------------------|
|-------0-------0-------0-------------|
|-------1-------1-------1-------------|
|-------1-------1-------1-------------|
|---2---------2-------2-------4-4-----|
|---0---------0-------0-----0-2-2-0---|


    B       Emaj7sus2
|---------------------------------------------------------------------|
|-----------------------------------------------------------0-0-0-0---|
|---8-8-8-8-8-8-8-888-8-8-8-8-8-8-898-8-8-8-8-8-8-898-8-8-8-8-8-8-8---|
|---9-9-9-9-9-9-9-999-9-9-9-9-9-9-999-9-9-9-9-9-9-999-9-9-9-9-9-9-9---|
|---9-9-9-9-9-9-9-999-9-9-9-9-9-9-999-9-9-9-9-9-9-999-9-9-9-9-9-9-9---|
|---7-7-7-7-0-0-0-007-7-7-7-0-0-0-007-7-7-7-0-0-0-007-7-7-7-0-0-0-0---|

    A               E
|-----------------------|
|-------------------0---|
|---6-6-6-6-6-6-6---1---|
|---7-7-7-7-7-7-7---2---|
|---7-7-7-7-7-7-7---2---|
|---5-5-5-5-5-5-5-0-0---|
Suggest correction
Give kudos to tab author, rate the tab!
1 2 3 4 5
comments
print report bad tab
guest
You may want to rate the tab now too:
select rating
Wanna post a correction for this tab? Suggest correction