Oops, an error
Loading. Please wait.

Simply Simple Tab

1,583 views 6 this week
no commentswrite comment
1 2 3 4 5
please rate
add to favorites
launch autoscroll
font size
0
reset
how to read this tab
guitar tuner
Autoscroll
slow
fast
+/-
esc
set tempo
stop
Help us to improve Ultimate-Guitar.com Take our survey!
×
Author
Difficulty
Tuning
novice
D# G# C# F# A# D#
-------------------------------------------------------------------------------
                             Simply Simple - Mother Mother
-------------------------------------------------------------------------------
Tabbed by: AwesomoXD

"Mother Mother performing "Simply Simple" at the Six Shooter House of Sin during our 
2011 SXSW Verge Sessions."
http://www.youtube.com/watch?v=ojHNZMScFAg

Tuning: Half-Step Down (D# G# C# F# A# d#)

[Intro]:

e|---------------------------------------------------------------------------|
B|--1---1---1---1---1---1---1---1---5---5---5---5---8---8---8---8------------|
G|----0---0---0---0---0---0---0---0---0---0---0---0---0---0---0--------------|
D|---------------------------------------------------------------------------|
A|--3---3---3---3---3---3---3---3---8---8---8---8---10--10--10--10-----------|
E|---------------------------------------------------------------------------|


[Song]:
e|---------------------------------------------------------------------------|
B|--1---1---1---1---1---1---1---1---5---5---5---5---8---8---8---8------------|
G|----0---0---0---0---0---0---0---0---0---0---0---0---0---0---0--------------| x8
D|---------------------------------------------------------------------------|
A|--3---3---3---3---3---3---3---3---8---8---8---8---10--10--10--10-----------|
E|---------------------------------------------------------------------------|
   Take me lightly, I’m not the way I ought to be –
   I’m just the way I got to be.
   Take me slowly or else you may come by injury –
   I’ll hurt you emotionally.
   Rock me baby until my eyes are closed and I’m asleep –
   Then it’s safe for you to leave.
   Call me lazy, for I have yet to let
e|---------------------------------|
B|--1---1---1---1---1---1---1---1--|
G|----0---0---0---0---0---0---0---0|
D|---------------------------------|
A|--3---3---3---3---3---3---3---3--|
E|---------------------------------|
   my soul free – It’s still very much
   Em     G      C  B/D# B/F#  C
e|-0------3------0---0----0----0---------|
B|-0------3------1---1----1----1---------|
G|-0------0------0---0----0----0---------| x4
D|-2------0------2---2----2----2---------|
A|-2------2------3---3----3----3---------|
E|-0------3------X---0----3----X---------|
   in my reach. Oh
   I just want it to unfold –
   Simply simple
   I’ll do everything I’m told –
   Em     G
e|-0------3-----|
B|-0------3-----|
G|-0------0-----|
D|-2------0-----|
A|-2------2-----|
E|-0------3-----|
   Keep it simple.
e|---------------------------------------------------------------------------|
B|--1---1---1---1---1---1---1---1---5---5---5---5---8---8---8---8------------|
G|----0---0---0---0---0---0---0---0---0---0---0---0---0---0---0--------------| x4
D|---------------------------------------------------------------------------|
A|--3---3---3---3---3---3---3---3---8---8---8---8---10--10--10--10-----------|
E|---------------------------------------------------------------------------|
   You want babies – well, here I am so why now aren’t you pleased,
   With a big baby like me?
   (Mamma’s little baby, you’re mamma’s little baby
   Yeah, you’re mamma’s little baby, just another little baby)
   I’ll throw a fit and you will trip to pick up
e|---------------------------------|
B|--1---1---1---1---1---1---1---1--|
G|----0---0---0---0---0---0---0---0|
D|---------------------------------|
A|--3---3---3---3---3---3---3---3--|
E|---------------------------------|
   after it – Domesticated
   Em     G      C  B/D# B/F#  C
e|-0-------------3--------0---0----0----0---------|
B|-0-------------3--------1---1----1----1---------|
G|-0-------------0--------0---0----0----0---------| x4
D|-2-------------0--------2---2----2----2---------|
A|-2-------------2--------3---3----3----3---------|
E|-0-------------3--------X---0----3----X---------|
   bliss, ain’t it? Oh, no.
   I just want it to unfold –
   Simply simple
   I’ll do everything I’m told –
   Em     G
e|-0------3-------0-------0----|
B|-0------3-------3-------6----|
G|-0------0-------0-------0----|
D|-2------0-------4-------7----|
A|-2------2-------5-------8----|
E|-0------3-------5-------8----|
   Keep it simple.        Oh
e|---------------------------------------------------------------------------|
B|--1---1---1---1---1---1---1---1---5---5---5---5---8---8---8---8------------|
G|----0---0---0---0---0---0---0---0---0---0---0---0---0---0---0--------------|
D|---------------------------------------------------------------------------|
A|--3---3---3---3---3---3---3---3---8---8---8---8---10--10--10--10-----------|
E|---------------------------------------------------------------------------|
   Simply simple (yeah, yeah, yeah, yeah).
e|---------------------------------|
B|--1---1---1---1---1---1---1---1--|
G|----0---0---0---0---0---0---0---0|
D|---------------------------------|
A|--3---3---3---3---3---3---3---3--|
E|---------------------------------|
   Simply simple (yeah, yeah, yeah, yeah).
  Em     G      C  B/D# B/F#  C
e|-0------3------0---0----0----0---------|
B|-0------3------1---1----1----1---------|
G|-0------0------0---0----0----0---------| x4
D|-2------0------2---2----2----2---------|
A|-2------2------3---3----3----3---------|
E|-0------3------X---0----3----X---------|
   I just want it to unfold. I’ll do everything I’m told.
   I just want it to unfold –
   Em     G     C     F     C     G     C
e|-0------3-----0-----1-----0-----3-----0-|
B|-0------3-----1-----1-----1-----3-----1-|
G|-0------0-----0-----2-----0-----0-----0-|
D|-2------0-----2-----3-----2-----0-----2-|
A|-2------2-----3-----X-----3-----2-----3-|
E|-0------3-----X-----X-----X-----3-----X-|
Simply simple.
Suggest correction new What's this?
You can suggest a correction to this tab. Community and Mods will review your correction and vote to approve or reject it.
comments
We did not receive enough feedback on this tab! Please rate:
print report bad tab
1 2 3 4 5
guest
You may want to rate the tab now too:
select rating
Please do not post tabs as comments. Select "correction" instead!