Oops, an error
Loading. Please wait.

Tic Toc Tab

1,810 views 1 this week
no commentswrite comment
1 2 3 4 5
x 4
add to favorites
launch autoscroll
font size
0
reset
how to read this tab
guitar tuner
Autoscroll
slow
fast
+/-
esc
set tempo
stop
Help us to improve Ultimate-Guitar.com Take our survey!
×
Author
Difficulty
intermediate
Song: Tic Toc
Artist: Mother Mother
Album: Touch Up

  F#              F#7sus4         F#              F#7sus4
|---2---2---2---20--0---0---0---00--2---2---2---20--0---0---0-0----|
|---2---2---2---20--0---0---0---00--2---2---2---20--0---0---0-0----|
|-3-3-3-3-3-3-3-333-3-3-3-3-3-3-333-3-3-3-3-3-3-333-3-3-3-3-3-3-33-|
|-4-4-4-4-4-4-4-4-4-4-4-4-4-4-4-4-4-4-4-4-4-4-4-4-4-4-4-4-4-4-4-44-|
|-4-4-4-4-4-4-4-4-4-4-4-4-4-4-4-4-4-4-4-4-4-4-4-4-4-4-4-4-4-4-4-44-|
|-2-2-2-2-2-2-0-2-0-2-2-2-2-2-0-2-0-2-2-2-2-2-0-2-0-2-2-2-2-2-2-22-|

  F                               B               E       E#dim7
|------------------------------------------------------------------|
|------------------------------------------------------------------|
|-3-----3-----3-3-3-3---------------8---8---8---xx--1---xx--1---xx-|
|-4-----4-----4-4-4-4-------------9-9-9-9-9-9-9-xx2-2-2-xx0-0-0-xx-|
|-4-----4-----4-4-4-4-------------9-9-9-9-9-9-9-xx2-2-2-xx2-2-2-xx-|
|-2-----2-----2-2-2-2-------------7-7-7-7-7-7-7-xx0-0-0-xx1-1-1-xx-|
                Lightly Palm Mute ................................

 F#               G#m7    Am6     F#/A#           Bm  
|------------------------------------------------------------------|
|------------------------------------------------------------------|
|-3-3-3-3-3-3-3-xx4-4-4-xx5-5-5-xx6-----------x---7-----------x----|
|-4-4-4-4-4-4-4-xx4-4-4-xx4-4-4-xx4-----------x---4-----------x----|
|-4-4-4-4-4-4-4-xxx-x-x-xxx-x-x-xxx-----------x---x-----------x----|
|-2-2-2-2-2-2-2-xx4-4-4-xx5-5-5-xx6-----------x---7-----------x----|

  F#                              B               E       E#dim7
|------------------------------------------------------------------|
|------------------------------------------------------------------|
|-3-3-3-3-3-3-3-3-3-----------------8---8---8---xx--1---xx--1---xx-|
|-4-4-4-4-4-4-4-4-4---------------9-9-9-9-9-9-9-xx2-2-2-xx0-0-0-xx-|
|-4-4-4-4-4-4-4-4-4---------------9-9-9-9-9-9-9-xx2-2-2-xx2-2-2-xx-|
|-2-2-2-2-2-2-2-2-2---------------7-7-7-7-7-7-7-xx0-0-0-xx1-1-1-xx-|
                Lightly Palm Mute ................................

  F#              G#m7    Am6     F#/A#           Bm         
|------------------------------------------------------------------|
|------------------------------------------------------------------|
|-3-3-3-3-3-3-3-xx4-4-4-xx5-5-5--x6-----------x---7----------------|
|-4-4-4-4-4-4-4-xx4-4-4-xx4-4-4--x4-----------x---4----------------|
|-4-4-4-4-4-4-4-xxx-x-x-xxx-x-x--xx-----------x---x----------------|
|-2-2-2-2-2-2-2-xx4-4-4-xx5-5-5--x6-----------x---7----------------|

                  Bm
|----------------------------------|
|----------------------------------|
|----------------------------------|
|-----------------7\---------------|
|-----------------4\---------------|
|-----------------x\---------------|
|-----------------7\---------------|

  F#  E    A# B   F#  E    A# B   F#  E    A# B  Bm
|------------------------------------------------------------------|
|------------------------------------------------33-3-3-3-3-3-3----|
|-3---1-----7-8---3---1-----7-7---3---1-----7-8-x44-4-4-4-4-4-4----|
|-4---2-xxxx8-9-xx4---2-xxxx8-9-xx4---2-xxxx8-9-x44-4-4-4-4-4-4----|
|-4---2-xxxx8-9-xx4---2-xxxx8-9-xx4---2-xxxx8-9-x22-2-2-2-2-2-2----|
|-2---0-xxxx6-7-xx2---0-xxxx6-7-xx2---0-xxxx6-7-x------------------|

  F#              F#7sus4         F#              F#7sus4
|---2---2---2---20--0---0---0---00--2---2---2---20--0---0---0-0----|
|---2---2---2---20--0---0---0---00--2---2---2---20--0---0---0-0----|
|-3-3-3-3-3-3-3-333-3-3-3-3-3-3-333-3-3-3-3-3-3-333-3-3-3-3-3-3-33-|
|-4-4-4-4-4-4-4-4-4-4-4-4-4-4-4-4-4-4-4-4-4-4-4-4-4-4-4-4-4-4-4-44-|
|-4-4-4-4-4-4-4-4-4-4-4-4-4-4-4-4-4-4-4-4-4-4-4-4-4-4-4-4-4-4-4-44-|
|-2-2-2-2-2-2-0-2-0-2-2-2-2-2-0-2-0-2-2-2-2-2-0-2-0-2-2-2-2-2-2-22-|

  F                               B               E       E#dim7
|------------------------------------------------------------------|
|------------------------------------------------------------------|
|-3-------3-------3-----------------8---8---8---xx--1---xx--1---xx-|
|-4-------4-------4---------------9-9-9-9-9-9-9-xx2-2-2-xx0-0-0-xx-|
|-4-------4-------4---------------9-9-9-9-9-9-9-xx2-2-2-xx2-2-2-xx-|
|-2-------2-------2---------------7-7-7-7-7-7-7-xx0-0-0-xx1-1-1-xx-|
                Lightly Palm Mute ................................

 F#               G#m7    Am6     F#/A#           Bm  
|------------------------------------------------------------------|
|------------------------------------------------------------------|
|-3-3-3-3-3-3-3-xx4-4-4-xx5-5-5--x6-666-----------7----------------|
|-4-4-4-4-4-4-4-xx4-4-4-xx4-4-4--x4-444-----------4----------------|
|-4-4-4-4-4-4-4-xxx-x-x-xxx-x-x--xx-xxx-----------x----------------|
|-2-2-2-2-2-2-2-xx4-4-4-xx5-5-5--x6-666-----------7----------------|

  F#5  D#5  A   G#5     D9              C#9
|-------------------------------------------------------|
|-----------------------5---5---5---5--x4-4-4-4-4-------|
|-----------------------5---5---5---5--x4-4-4-4-4-------|
|-4----1----7---6-------4---4---4---4--x3-3-3-3-3-------|
|-4----1----7---6-------5---5---5---5--x4-4-4-4-4-------|
|-------------------------------------------------------|

  G#m7            C#              A#m7            D#7
|------------------------------------------------------------------|
|------------------------------------------------------------------|
|------------------------------------------------------------------|
|-4---4---4---4--x3---3---3---3--x6---6---6---6---5---5---5---5----|
|----------------x4---4---4---4--x----------------6---6---6---6----|
|-4---4---4---4--x---------------x6---6---6---6--------------------|

  G#m7            C#9
|----------------------------------|
|-----------------4----------------|
|-----------------4----------------|
|-4---4---4-------3----------------|
|-----------------4----------------|
|-4---4---4------------------------|

  F#  E    A# B   F#  E    A# B   F#  E    A# B  Bm
|------------------------------------------------------------------|
|------------------------------------------------33-3-3-3-3-3-3----|
|-3---1-----7-8---3---1-----7-7---3---1-----7-8-x44-4-4-4-4-4-4----|
|-4---2-xxxx8-9-xx4---2-xxxx8-9-xx4---2-xxxx8-9-x44-4-4-4-4-4-4----|
|-4---2-xxxx8-9-xx4---2-xxxx8-9-xx4---2-xxxx8-9-x22-2-2-2-2-2-2----|
|-2---0-xxxx6-7-xx2---0-xxxx6-7-xx2---0-xxxx6-7-x------------------|
Suggest correction
comments
print report bad tab
guest
You may want to rate the tab now too:
select rating
Wanna post a correction for this tab? Suggest correction