Oops, an error
Loading. Please wait.

It Hurts Until It Doesnt Tab

415 views 45 this week
1 commentread comment
1 2 3 4 5
1 last vote to show rating
add to favorites
launch autoscroll
font size
0
reset
how to read this tab
guitar tuner
Autoscroll
slow
fast
+/-
esc
set tempo
stop
Help us to improve Ultimate-Guitar.com Take our survey!
×
Author
Difficulty
Capo
intermediate
5th fret
About this tab version
First Mothers tab? This band is amazing and deserves to be heard :). Was this info helpful? Yes No
So this tab is a little more simplified than what is on the record, but still sounds good!



[Intro]

   A                       E

e|---------------0-4-0---------------------| (or some variation of this)
B|------2-0----4-------------0-------------|
G|----2-----1--------------1--1-1/2--------|
D|------------------------------------2----|
A|--2-------------------------------2------|
E|-----------------------------------------|(x2) 

e|---0-0-0---|
B|---0-0-0---|
G|---4-2-1---|
D|---2-2-2---|
A|---0-0-2---|
E|---0-0-0---|(x2)

A  E


[Verse 1]

A                         E
I felt alive for a little while
A                                 E
But when I died I had the time to notice
A                                     E
I was crushed by the weight of my own ego
A                          E
But never honest enough to say it


   A                       E

e|---------------0-4-0---------------------| (or some variation of this)
B|------2-0----4-------------0-------------|
G|----2-----1--------------1--1-1/2--------|
D|------------------------------------2----|
A|--2-------------------------------2------|
E|-----------------------------------------|(x2)

e|---0-0-0---|
B|---0-0-0---|
G|---4-2-1---|
D|---2-2-2---|
A|---0-0-2---|
E|---0-0-0---| (x2)

A  E

A                      E
I felt your love for a little while
A                                  E
But never had the guts to give myself up
A                                  E
I said that I could be just what you wanted 
A                          E
As if I could ever keep a promise
A                          E
As if I could ever keep a promise

   A                       E

e|---------------0-4-0---------------------| (or some variation of this)
B|------2-0----4-------------0-------------|
G|----2-----1--------------1--1-1/2--------|
D|------------------------------------2----|
A|--2-------------------------------2------|
E|-----------------------------------------|(x2) 

e|---0-0-0---|
B|---0-0-0---|
G|---4-2-1---|
D|---2-2-2---|
A|---0-0-2---|
E|---0-0-0---|(x2)


[Bridge]

A  E  C#m  E

E
You have eyes in every room 
            A
But you won't see me, you won't see me, 
          C#m         E
you won't see me walk away
E                           
Once I was more than just 
   A
a song to play on your haunted tape
  C#m              E
I don't want to be away

E
Could have sworn I heard you laughing 
       A
in the doorway
      C#m                E
I don't like myself when I'm awake
       A                 E
I don't like myself when I'm awake


[Outro]

   A                       E

e|---------------0-4-0---------------------| (or some variation of this)
B|------2-0----4-------------0-------------|
G|----2-----1--------------1--1-1/2--------|
D|------------------------------------2----|
A|--2-------------------------------2------|
E|-----------------------------------------|  (x2) 

e|---0-0-0---|
B|---0-0-0---|
G|---4-2-1---|
D|---2-2-2---|
A|---0-0-2---|
E|---0-0-0---| (x2)


************************************

| /  Slide up

************************************
Suggest correction
Give kudos to tab author, rate the tab!
1 2 3 4 5
comments
print report bad tab
1 comment total.
0 reply
Loucksg 268 6 days ago

It looks like the main riff is played something like this.
e|---------------0-4-0------------------|
B|------2------4------------------------|
G|------1-4-1-----------1-4--1/2--------|
D|------2------------------4-------2----|
A|-----0-------------------------2------|
E|--------------------------------------|
Or
e|---------------0-4-0------------------|
B|------2-0----4----------0-------------|
G|------1---1-----------1----1/2--------|
D|------2------------------4-------2----|
A|-----0-------------------------2------|
E|--------------------------------------|

Thanks for the tab, Helped me out quite a bit!

guest
You may want to rate the tab now too:
select rating
Wanna post a correction for this tab? Suggest correction