Oops, an error
Loading. Please wait.

Nesting Behaviour Tab

25 views 15 this week
no commentswrite comment
1 2 3 4 5
3 more votes to show rating
add to favorites
launch autoscroll
font size
0
reset
how to read this tab
guitar tuner
Autoscroll
slow
fast
+/-
esc
set tempo
stop
Help us to improve Ultimate-Guitar.com Take our survey!
×
Author
Difficulty
novice
About this tab version
Hi everybody - first time tabber, long time fan. Hope you love this song as much as I do. Feel free to comment improvements if any, I think its pretty close. I used this video to help me along: https://www.youtube.com/watch?v=zyyWtmkuwOc God bless. Was this info helpful? Yes No
First part - up to 1:13

E|-------------------------|------------------------|------------------------|-------------------------|
B|-------------------------|------------------------|------------------------|-------------------------|
G|-------------------------|------------------------|------------------------|-------------------------|
D|--------8-----------8----|-------9-----------9----|-------8-----------8----|-------9-----------9-----|
A|-----9-----9-----9-----9-|----8-----8-----8-----8-|----9-----9-----9-----9-|----8-----8-----8-----8--|
E|--7-----------7----------|-9-----------9----------|-7-----------7----------|-9-----------9-----------|

Second part - 1:13 to 2:32

E|-------------------------|------------------------|-------------------------|
B|-------------------------|------------------------|-------------------------|
G|--------6-----------6----|-------7-----------7----|-------8-----------8-----|
D|-----8-----8-----8-----8-|----8-----8-----8-----8-|----8-----8-----8-----8--|
A|--9-----------9----------|-9-----------9----------|-9-----------9-----------|
E|-------------------------|------------------------|-------------------------|

Third part - 2:32 to 4:35

E|-------------------------|------------------------|------------------------|-------------|
B|-------------------------|------------------------|------------------------|-------------|
G|-------------------------|------------------------|------------------------|-------------|
D|--------8-----------8----|-------9-----------9----|-------8-----------8----|-------9-----|
A|-----9-----9-----9-----9-|----8-----8-----8-----8-|----9-----9-----9-----9-|----8-----8--|
E|--7-----------7----------|-9-----------9----------|-7-----------7----------|-9-----------|

Last part - 4:35 to end

E|-------------------------|------------------------|------------------------|-------------------------|
B|-------------------------|------------------------|------------------------|-------------------------|
G|--------6-----------6----|------------------------|-------6-----------6----|-------------------------|
D|-----8-----8-----8-----8-|-------9-----------9----|----8-----8-----8-----8-|-------9-----------9-----|
A|--9-----------9----------|----8-----8-----8-----8-|-9-----------9----------|----8-----8-----8-----8--|
E|-------------------------|-9-----------9----------|------------------------|-9-----------9-----------|
Suggest correction
Give kudos to tab author, rate the tab!
1 2 3 4 5
comments
print report bad tab
guest
You may want to rate the tab now too:
select rating
Wanna post a correction for this tab? Suggest correction