Oops, an error
Loading. Please wait.

A Lifeless Ordinary Need A Little Help Tab

version 1
version 1

Acoustic

Whole song

962 views 3 this week
no commentswrite comment
1 2 3 4 5
please rate
add to favorites
launch autoscroll
font size
0
reset
how to read this tab
guitar tuner
Tab Pro tools
  • play this tab
  • loop segment
  • change instrument
  • show fretboard
  • metronome
×
Best way to learn
"A Lifeless Ordinary Need A Little Help"
Autoscroll
slow
fast
+/-
esc
set tempo
stop
Contributor
*NOTE*       This is exactly how he plays it in this video

http://www.youtube.com/watch?v=JWvlTt9iUJE

make sure your are thinking of this one.

*NOTE* *IMPORTANT* this song is in flat tuning:
eb---------------------------------------------------------------------------|
Bb---------------------------------------------------------------------------|
Gb---------------------------------------------------------------------------|
Db---------------------------------------------------------------------------|
Ab---------------------------------------------------------------------------|
Eb---------------------------------------------------------------------------|


I do not feel like putting all of the times he plays it on here because that would take 
long. but have fun with the tab!


VERSE:

eb---------------------------------------------------------------------------|
Bb---------------------------------------------------------------------------|
Gb---------------------------------------------------------------------------|
Db----2-------11------9------------------------------------------------------|
Ab----4--------0------7-----1------------------------------------------------|
Eb----4--------------(0)----2------------------------------------------------|


Right before chorus play:

eb---------------------------------------------------------------------------|
Bb---------------------------------------------------------------------------|
Gb---------------------------------------------------------------------------|
Db------7----9---------------------------------------------------------------|
Ab------7----9---------------------------------------------------------------|
Eb------5----7---------------------------------------------------------------|


CHORUS:

eb---------------------------------------------------------------------------|
Bb---------------------------------------------------------------------------|
Gb---1-----------------------------------------------------------------------|
Db---2-----9----11---7-------------------------------------------------------|
Ab---2-----9----11---7-------------------------------------------------------|
Eb---0-----7----9----5-------------------------------------------------------|

Last part of the chorus play this

eb---------------------------------------------------------------------------|
Bb---------------------------------------------------------------------------|
Gb--1------------------------------------------------------------------------|
Db--2-----9-----11-----6----9------------------------------------------------|
Ab--2-----9-----11-----6----9------------------------------------------------|
Eb--0-----7-----9------4----7------------------------------------------------|

Part where the awesome solo goes in:

eb---------------------------------------------------------------------------|
Bb---------------------------------------------------------------------------|
Gb---------------------------------------------------------------------------|
Db----2-------11------9------------------------------------------------------|
Ab----4--------0------7-----1------------------------------------------------|
Eb----4--------------(0)----2------------------------------------------------|


2nd VERSE:

eb---------------------------------------------------------------------------|
Bb---------------------------------------------------------------------------|
Gb---------------------------------------------------------------------------|
Db----2--------11-----9------------------------------------------------------|
Ab----4---------0-----7-----1------------------------------------------------|
Eb----4--------------(0)----2------------------------------------------------|


Right before chorus play:

eb---------------------------------------------------------------------------|
Bb---------------------------------------------------------------------------|
Gb---------------------------------------------------------------------------|
Db------7----9---------------------------------------------------------------|
Ab------7----9---------------------------------------------------------------|
Eb------5----7---------------------------------------------------------------|


CHORUS

CHORUS:

eb---------------------------------------------------------------------------|
Bb---------------------------------------------------------------------------|
Gb---1-----------------------------------------------------------------------|
Db---2-----9----11---7-------------------------------------------------------|
Ab---2-----9----11---7-------------------------------------------------------|
Eb---0-----7----9----5-------------------------------------------------------|

Last part of the chorus play this

eb---------------------------------------------------------------------------|
Bb---------------------------------------------------------------------------|
Gb--1------------------------------------------------------------------------|
Db--2-----9-----11-----6----9------------------------------------------------|
Ab--2-----9-----11-----6----9------------------------------------------------|
Eb--0-----7-----9------4----7------------------------------------------------|


INTERLUDE

eb---------------------------------------------------------------------------|
Bb---------------------------------------------------------------------------|
Gb---------1---9-----8-------------------------------------------------------|
Db---2-----2---11----9-------------------------------------------------------|
Ab---4-----2---0-----9-------------------------------------------------------|
Eb---4-----0-----------------------------------------------------------------|

End that part on this chord

eb---------------------------------------------------------------------------|
Bb---------------------------------------------------------------------------|
Gb---------------------------------------------------------------------------|
Db------------------7--------------------------------------------------------|
Ab------------------7--------------------------------------------------------|
Eb------------------5--------------------------------------------------------|


Chorus:

eb---------------------------------------------------------------------------|
Bb---------------------------------------------------------------------------|
Gb------1--------------------------------------------------------------------|
Db----2---2--------------9-----------11-----------7--------------------------|
Ab--2------------------9---9------11----11------7---7------------------------|
Eb-------------------7----------9-------------5------------------------------|

end that part on this chord:

eb---------------------------------------------------------------------------|
Bb---------------------------------------------------------------------------|
Gb---------------------------------------------------------------------------|
Db----------------------7----------------------------------------------------|
Ab----------------------7----------------------------------------------------|
Eb----------------------5----------------------------------------------------|


eb---------------------------------------------------------------------------|
Bb---------------------------------------------------------------------------|
Gb---1-----------------------------------------------------------------------|
Db---2-----9----11---7-------------------------------------------------------|
Ab---2-----9----11---7-------------------------------------------------------|
Eb---0-----7----9----5-------------------------------------------------------|

Last part of the chorus play this

eb---------------------------------------------------------------------------|
Bb---------------------------------------------------------------------------|
Gb--1------------------------------------------------------------------------|
Db--2-----9-----11-----6----9------------------------------------------------|
Ab--2-----9-----11-----6----9------------------------------------------------|
Eb--0-----7-----9------4----7------------------------------------------------|

END SONG ON THIS CHORD:

eb---------------------------------------------------------------------------|
Bb---------------------------------------------------------------------------|
Gb--------1------------------------------------------------------------------|
Db--------2------------------------------------------------------------------|
Ab--------2------------------------------------------------------------------|
Eb--------0------------------------------------------------------------------|
comments
We did not receive enough feedback on this tab! Please rate:
print report bad tab
1 2 3 4 5
I want to post or [tab]
guest
You may want to rate the tab now too:
select rating
Please do not post tabs as comments. Select "correction" instead!