Oops, an error
Loading. Please wait.

Always Running Out Of Time chords

13,322 views 1 this week
3 commentsread comments
1 2 3 4 5
x 10
add to favorites
×
Save as Personal and add changes to this tab that will be seen only by you. Learn more ›
×
You can save this tab as Personal to edit and correct it or add notes. All changes will be seen only by you. Learn more »
launch autoscroll
font size
0
reset
transpose
0
reset
simplify chords
display chords
guitar tuner
edit
Autoscroll
slow
fast
+/-
esc
set tempo
stop
Strumming
There is no strumming pattern for this song yet. and get +5 IQ
Motion City Soundtrack
Always Running Out Of Time
Alice In Wonderland Soundtrack
2010
Submitted by: paramore_fans@yahoo.com

Key: C

Tuning: Standard EADGBe

Chords used:
C -    x32010
F -    133211
Am -   x02210
G -    320003
G/B -  x2x003
Em -   022000
G# -   466544
Dm -   xx0231
Bb -   x13331
C/E -  032xxx


Intro:
      C         F        Am         G
e|---------|---------|---------|---------|
B|---1-3-1-|---1-3-1-|---1-3-1-|---1-3-1-|
G|---------|---------|---------|---------|
D|---------|---------|---------|---------|
A|-3-------|---------|-0-------|---------|
E|---------|-1-------|---------|-3-------|

      C         F        Am        G/B
e|---------|---------|---------|---------|
B|---1-3-1-|---1-3-1-|---1-3-1-|---1-3-1-|
G|---------|---------|---------|---------|
D|---------|---------|---------|---------|
A|-3-------|---------|-0-------|-2-------|
E|---------|-1-------|---------|---------|


Verse 1:
C       F
I won’t tell you how 
   Am        G
to live your life
   C           F
So please stay far 
          Am  G/B
away from mine
C      F
Always watching out 
    Am        G
for which and when
   C      F
Is always running 
       Am  G/B
out of time


Guitar Solo: C-F-Am-G-C-F-Am-G/B-
e|----------------------------------------3--0----|
B|-1--0----0------------------1--0----0-1-------3-|
G|-------2---2-0------0-------------2-------------|
D|---------------2--3---2--0----------------------|
A|------------------------------------------------|
E|------------------------------------------------|


Verse 2:
C          F
Drip drops in like 
 Am     G
skin of summer
C        G            Am   G/B
All once everything unwinds
C      F
Inside-out and all 
 Am      G
about my heart
   C      F
Is always running 
       Am  G/B C F Am G
out of time
C      F
Always running 
       Am
out of time


Chorus 1:
G#        C   F
I have to know
Am   G
  If you flew 
 C        F
away with me
Am    G#       C  F
  The faster I go
Am    G        C
  The further away 
   F        Em
it seems we get
    F        G
And floating our way out


Guitar Solo: C-F-Am-G-C-F-Am-G/B-
e|----------------------------------------3--0----|
B|-1--0----0------------------1--0----0-1-------3-|
G|-------2---2-0------0-------------2-------------|
D|---------------2--3---2--0----------------------|
A|------------------------------------------------|
E|------------------------------------------------|


Verse 2:
C         F
Tick tock try to stop 
    Am      G
the forward motion
C         F
All heads tend to 
       Am  G/B
fall behind
C      F
Wasted whethers of 
    Am        G
the wish cut steeper
   C      F              Am  G/B
Is always running out of time
C      F              Am
Always running out of time


Chorus 2:
G#        C   F
I have to know
Am   G
  If you flew 
 C        F
away with me
Am    G#       C  F
  The faster I go
Am    G        C
  The further away 
   F        Em
it seems we get
F    G
  we follow sweetheart


Bridge:
Dm    C/E        F
  And all of her end
               C
I should have stayed
      Bb      Am
But I lost my head
                Dm
With all of our words
  C/E         F
Devoicing themselves
               C
I should have stayed
      Bb      Am
But I lost my head
               G#
I should have stayed
      Bb
But I lost myself


Interlude: C-F-Am-G-C-F-Am-G/B-


Outro:
C      F           Am     G
Always running out of time
C      F           Am     G/B
Always running out of time
C      F           Am     G
Always running out of time
C      F           Am     G/B
Always running out of time
C      F           Am     G
Always running out of time
C      F           Am     G/B
Always running out of time
C      F           Am     G
Always running out of time
C      F           Am     G/B C(hold)
Always running out of time

            
            
Suggest correction
Creating personal tab
Creating personal tab
You can edit any tab online and save it as your Personal.

You can edit, replace or remove any tab part or add personal notes – all changes will be seen only by you.

Personal tabs can be accessed anytime from any device, even offline.
Learn more »
comments
print report bad tab
3 comments total.
0 reply
Kysh 10 Jul 16, 2010 08:59 PM

i love this song. thanks :)

0 reply
Billie-Paige 10 Aug 07, 2010 06:51 AM

I think you'll find that the intro goes like this:

C F Am G
e|---------|---------|---------|---------|
B|---1-3-1-|---1-3-1-|---1-3-1-|---1-3-1-|
G|---------|---------|---------|---------|
D|---------|-3-------|---------|---------|
A|-3-------|---------|-0-------|---------|
E|---------|---------|---------|-3-------|

C F Am G/B
e|---------|---------|---------|---------|
B|---1-3-1-|---1-3-1-|---1-3-1-|---1-3-1-|
G|---------|---------|---------|---------|
D|---------|---------|---------|---------|
A|-3-------|---------|-0-------|-2-------|
E|---------|-1-------|---------|---------|

0 reply
portysch 31 Nov 11, 2013 08:36 AM

Try to play G/B like 020033 sounds better for me

guest
You may want to rate the tab now too:
select rating
Wanna post a correction for this tab? Suggest correction