Oops, an error
Loading. Please wait.

Antonia Bass Tab

2,057 views 1 this week
no commentswrite comment
1 2 3 4 5
please rate
add to favorites
launch autoscroll
font size
0
reset
guitar tuner
Tab Pro tools
  • play this tab
  • loop segment
  • change instrument
  • show fretboard
  • metronome
×
Best way to learn
"Antonia"
Autoscroll
slow
fast
+/-
esc
set tempo
stop
Contributor
-------------------------------------------------------------------------------
			     Antonia -Motion City Soundtrack
-------------------------------------------------------------------------------

Tabbed By: Valerie L.
e-mail: iloled@yahoo.com
Tuning: standard

Verse
G|--------------------|---------------------------------------|
D|--------------------|-------------------222222-2p1----------|
A|22222222------------|-22222222---------------------22222222-|
E|---------22222222-x3|----------22222222---------------------|

Verse 2
G|----------------------|-------------------|
D|----------------------|-------------------|
A|22222222----------1---|-22222222----------|
E|---------2222-2h4---2-|----------22222222-|

Pre-Chours
G|-----------------------------------------------------------------------------------|
D|2222222222222222-1111111111111111-000000000000000----------------------------------|
A|--------------------------------------------------444444444444444-2222222222222222-|
E|-----------------------------------------------------------------------------------|

Chorus
G|------------------------------------------|     |-----------------|
D|------------------------------------------|     |222222-2p1-------|
A|---------66-6-6-44-4------------6666-4444-|     |-----------22222-|
E|22-2-2-66-------------22-2-2-66-----------| x4  |-----------------|

Verse
G|---------------------|-----------------------------------------------|
D|---------------------|---------------------------222222-2p1----------|
A|22222222-------------|-22222222----------1------------------2222222--|
E|---------22222222-x2-|----------2222-2h4---2-x2----------------------|

Verse 2
G|---------------------------|
D|---------------------------|
A|-22222222----------1-------|
E|----------2222-2h4---2-x2--|

Rest in pre-chorus

Chorus x4

Bridge
G|--------------------------------------------------------------------------------|
D|--------------------------------------------------------------1---2222222-------|
A|22222222----------1---22222222----------22222222----------1-2---2---------222222|
E|---------2222-2h4---2----------22222222----------22222222-----------------------|

Outro
G|-----------------------------------------------------------------66666666-|
D|2222222222222222-1111111111111111-000000000000000-------------------------|
A|--------------------------------------------------444444444444444---------|
E|--------------------------------------------------------------------------|

Chorus x2

comments
We did not receive enough feedback on this tab! Please rate:
print report bad tab
1 2 3 4 5
I want to post or [tab]
guest
You may want to rate the tab now too:
select rating
Please do not post tabs as comments. Select "correction" instead!