Oops, an error
Loading. Please wait.

Antonia Tab

11,578 views 6 this week
7 commentsread comments
1 2 3 4 5
accurate
x 3
add to favorites
launch autoscroll
font size
0
reset
how to read this tab
guitar tuner
Tab Pro tools
  • play this tab
  • loop segment
  • change instrument
  • show fretboard
  • metronome
×
Best way to learn
"Antonia"
Autoscroll
slow
fast
+/-
esc
set tempo
stop
Contributor
----------------------------------------------------------------------------
                             ANTONIA - Motion City Soundtrack
----------------------------------------------------------------------------
Tabbed by:Spencer B.
Email: 

Tuning: Standard

Guitar 1: Elec. w/ Heavy Dist.
Guitar 2: Elec. w/ Heavy Dist.
Guitar 3: Synth

UPDATE 4/29/07: Guitar Solo and All Synth Parts added

UPDATE 11/11/07: Lead Guitar added for Verse

Verse: 0:00 - 0:39

Guitar 1:

e|-------------------|-----------------|------------------|----------------|
B|-------------------|-----------------|------------------|----------------|
G|-------------------|-----------------|------------------|----------------|
D|-------------------|-----------------|------------------|----------------|
A|--9-9-9-9-9-9-9-9/-|-4-4-4-4-4-4-4-4-|-9-9-9-9-9-9-9-9/-|-4-4-4-4-4-4-4-4|
E|--7-7-7-7-7-7-7-7/-|-2-2-2-2-2-2-2-2-|-7-7-7-7-7-7-7-7/-|-2-2-2-2-2-2-2-2|
PM  . . . . . . . .    . . . . . . . .   . . . . . . . .    . . . . . . . .

(Continued)

e|-------------------|-----------------|------------------|----------------|
B|-------------------|-----------------|------------------|----------------|
G|-------------------|-----------------|------------------|----------------|
D|-------------------|-----------------|-9-9-9-9-9-9-9-9--|----------------|
A|--9-9-9-9-9-9-9-9/-|-4-4-4-4-4-4-4-4-|-7-7-7-7-7-7-7-7--|-9-9-9-9-9-9-9-9|
E|--7-7-7-7-7-7-7-7/-|-2-2-2-2-2-2-2-2-|------------------|-7-7-7-7-7-7-7-7|
PM  . . . . . . . .    . . . . . . . .   . . . . . . . .    . . . . . . . .

Guitar 1 and 2: 

e|-----------------|-----------------|-----------------|-----------------|
B|-----------------|-----------------|-----------------|-----------------|
G|-4-4-4-4-4-4-4-4-|-----------------|-4-4-4-4-4-4-4-4-|-----------------|
D|-4-4-4-4-4-4-4-4-|-4-4-4-4-4-4-4-4-|-4-4-4-4-4-4-4-4-|-4-4-4-4-4-4-4-4-|
A|-2-2-2-2-2-2-2-2-|-4-4-4-4-4-4-4-4-|-2-2-2-2-2-2-2-2-|-4-4-4-4-4-4-4-4-|
E|-----------------|-2-2-2-2-2-2-2-2-|-----------------|-2-2-2-2-2-2-2-2-|

(Continued)

e|-----------------|-----------------|-----------------|-----------------|
B|-----------------|-----------------|-----------------|-----------------|
G|-4-4-4-4-4-4-4-4-|-----------------|-9-9-9-9-9-9-9-9-|-4-4-4-4-4-4-4-4-|
D|-4-4-4-4-4-4-4-4-|-4-4-4-4-4-4-4-4-|-9-9-9-9-9-9-9-9-|-4-4-4-4-4-4-4-4-|
A|-2-2-2-2-2-2-2-2-|-4-4-4-4-4-4-4-4-|-7-7-7-7-7-7-7-7-|-2-2-2-2-2-2-2-2-|
E|-----------------|-2-2-2-2-2-2-2-2-|-----------------|-----------------|

(Continued)

e|-----------------|-----------------|-----------------|-----------------|
B|-----------------|-----------------|-----------------|-----------------|
G|-4-4-4-4-4-4-4-4-|-----------------|-4-4-4-4-4-4-4-4-|-----------------|
D|-4-4-4-4-4-4-4-4-|-4-4-4-4-4-4-4-4-|-4-4-4-4-4-4-4-4-|-4-4-4-4-4-4-4-4-|
A|-2-2-2-2-2-2-2-2-|-4-4-4-4-4-4-4-4-|-2-2-2-2-2-2-2-2-|-4-4-4-4-4-4-4-4-|
E|-----------------|-2-2-2-2-2-2-2-2-|-----------------|-2-2-2-2-2-2-2-2-|

(Continued)

e|-----------------|-----------------|
B|-----------------|-----------------|
G|-4-4-4-4-4-4-4-4-|-----------------|
D|-4-4-4-4-4-4-4-4-|-4-4-4-4-4-4-4-4-|
A|-2-2-2-2-2-2-2-2-|-4-4-4-4-4-4-4-4-|
E|-----------------|-2-2-2-2-2-2-2-2-|

Guitar 3:

e|--------------|----------|--------------|-----------|
B|--------------|----------|--------------|-----------|
G|-11-9-8-14--6-|----------|-11-9-8-14--6-|-----------|
D|--------------|-6-8-11-8-|--------------|-6-8-11-8--|
A|--------------|----------|--------------|-----------|
E|--------------|----------|--------------|-----------|

Pre-Chorus: 0:40 - 0:53

Guitar 1:

e|------------------|-----------------|-----------------|-----------------|
B|------------------|-----------------|-----------------|-----------------|
G|------------------|-----------------|-----------------|-----------------|
D|--4-4-4-4-4-4-4-4-|-4-4-4-4-4-4-4-4-|-----------------|-----------------|
A|--2-2-2-2-2-2-2-2-|-2-2-2-2-2-2-2-2-|-4-4-4-4-4-4-4-4-|-4-4-4-4-4-4-4-4-|
E|------------------|-----------------|-2-2-2-2-2-2-2-2-|-2-2-2-2-2-2-2-2-|
PM  . . . . . . . .   . . . . . . . .   . . . . . . . .   . . . . . . . .
 
Guitar 2: 

e|------------------|-----------------|-----------------|---------------|
B|------------------|-----------------|-----------------|---------------|
G|------------------|--------5-8/4~---|-----------------|--------5/8-4~-|
D|------------------|-----------------|-----------------|---------------|
A|------------------|-----------------|-----------------|---------------|
E|------------------|-----------------|-----------------|---------------|

Guitar 1:

e|------------------|-----------------|-----------------|-----------------|
B|------------------|-----------------|-----------------|-----------------|
G|------------------|-----------------|-----------------|-----------------|
D|--4-4-4-4-4-4-4-4-|-4-4-4-4-4-4-4-4-|-----------------|-----------------|
A|--2-2-2-2-2-2-2-2-|-2-2-2-2-2-2-2-2-|-4-4-4-4-4-4-4-4-|-4-4-4-4-4-4-4-4-|
E|------------------|-----------------|-2-2-2-2-2-2-2-2-|-2-2-2-2-2-2-2-2-|
PM  . . . . . . . .   . . . . . . . .   . . . . . . . .   . . . . . . . .

Guitar 2:

e|------------------|-----------------|-----------------|-----------------|
B|------------------|-----------------|-----------------|-----------------|
G|------------------|--------5-8/4~---|-----------------|-4-4-4-4-4-4-4-4-|
D|------------------|-----------------|-----------------|-----------------|
A|------------------|-----------------|-----------------|-----------------|
E|------------------|-----------------|-----------------|-----------------|

Chorus: 0:54 - 1:17

Guitar 1 and 2:

e||------------------|------------------|  |
B||------------------|------------------|  |
G||o-----------------|-8-8-8-8-8-4/6-6-o|X8|
D||o--4-4-4-4--8-8-8-|-8-8-8-8-8-4/6-6-o|  |
A||---4-4-4-4--8-8-8-|-6-6-6-6-6-2/4-4--|  |
E||---2-2-2-2--6-6-6-|------------------|  |

(Continued)

e|------------------|-----------------|
B|------------------|-----------------|
G|--4-4-4-4-4-4-4-4-|-----------------|
D|--4-4-4-4-4-4-4-4-|-4-4-4-4-4-4-4-4-|
A|--2-2-2-2-2-2-2-2-|-4-4-4-4-4-4-4-4-|
E|------------------|-2-2-2-2-2-2-2-2-|

Guitar 3:

e|------------------|---------------|
B|------------------|---------------|
G|-12-15-12--6-8-9--|-4-8-6---------|
D|------------------|--------4-6-8--|
A|------------------|---------------|
E|------------------|---------------|

(Continued)

e|------------|---------------|
B|-11---------|--11-----------|
G|------11----|--------11-----|
D|------------|---------------|
A|------------|---------------|
E|------------|---------------|

Repeat Verse: 1:18 - 1:42

Except Guitar Three:
(play this and then continue with verse 1 part)

e|----------------------------|-------------------------|
B|----------------------------|-------------------------|
G|-11-11-11-11-11-11-11-11-11-|-14-14-14-14-14-14-14-14-|
D|----------------------------|-------------------------|
A|----------------------------|-------------------------|
E|----------------------------|-------------------------|

Repeat Pre-Chorus: 1:43 - 1:56

Chorus: 1:57 - 2:17

Repeat Chorus

Guitar Solo: 2:17 - 2:30

Guitar 1: Play 2nd half of verse

Guitar 2:

e|---------------|--------------------|--------------------|-------------|
B|---------------|--------------------|--------------------|-------------|
G|-9-11-9-8-8--6-|-3--1-1----9-11-9-8-|-9-12-15--14-12-11--|-12/9-9/11\9-|
D|---------------|--------4-----------|--------------------|-------------|
A|---------------|--------------------|--------------------|-------------|
E|---------------|--------------------|--------------------|-------------|


e|--------------------------------------------------------|
B|--------------------------------------------------------|
G|-9-11-11-14-14-12-11-9-8-8/6-6/3-3/1-1-----1/12-11-6/8~-|
D|---------------------------------------4-4--------------|
A|--------------------------------------------------------|
E|--------------------------------------------------------|

Bridge: 2:31 - 2:57

Guitar 3:

e|--------------------------------|
B|--------------------------------|
G|-11--11--11--11--10--10--10--10-|
D|--------------------------------|
A|--------------------------------|
E|--------------------------------|

Out-Chorus: 2:59 - 3:16

Repeat Normal Chorus

| /  slide up
| \  slide down
| h  hammer-on
| p  pull-off
| ~  vibrato
| +  harmonic
| x  Mute note
| PM Palm Mute
============================================================================

comments
We did not receive enough feedback on this tab! Please rate:
print report bad tab
1 2 3 4 5
7 comments total. Showing first comments.
0 reply
JS5150 wrote on November 7 2007, 03:19 pm

Thanks, please tab the solo when you get to it.

0 reply
stradivari310 wrote on November 8 2007, 03:45 pm

there's no lead guitar part, and the bridge is completely off. Nice try though.

0 reply
stradivari310 wrote on November 8 2007, 03:45 pm

There's no lead guitar part, and the prechorus is completely off.

I want to post or [tab]
guest
You may want to rate the tab now too:
select rating
Please do not post tabs as comments. Select "correction" instead!