Oops, an error
Loading. Please wait.

Aok Bass Tab

999 views 1 this week
no commentswrite comment
1 2 3 4 5
please rate
add to favorites
launch autoscroll
font size
0
reset
guitar tuner
Autoscroll
slow
fast
+/-
esc
set tempo
stop
Help us to improve Ultimate-Guitar.com Take our survey!
×
Author
Tuning
D A D G B E
Artist: Motion City Soundtrack
Bassist: Matthew Taylor
Song: A-OK
Album: I Am The Movie
Tabbed By: Lewis [lewis_mason21@hotmail.com]

Can be played in Eb once again, but I've done the tab in Drop D

[Tuning: Drop D - D,A,D,G]

Key:
~: Let Note Ring
h: Hammer On

Intro, Part One: [Note: Rest around 30 seconds then the bass comes in]
("This time I thought I'd listen" ... "You have no right to say")
G|----------|
D|----------|
A|----------|
D|-33-3-3h5-|


Chorus:
("I shut my mouth" ... "I am the reason")
G|-------------------------------------|
D|-------------------------------------|
A|-------11-3333-----------11-3333-----|
D|-666666-------5555-666666-------1111-|

G|-------------------------------------|
D|-------------------------------------|
A|-------11-3333-----------11-3333-----|
D|-666666-------5555-666666-------111--|


Pre-Verse: [Note: The Hammer On is optional, just makes things smoother]
G|-------------------------------------|
D|-------------------------------------|
A|-33333333----------------------------|
D|----------66666666-11111111-33333333-|

G|-------------------------------------|
D|-------------------------------------|
A|-33333333----------------------------|
D|----------66666666-11111111-33-3-3h5-|


Synth Solo/Verse One/Pre-Chorus:
("Long lasting this obsession" ... "Everything is A-OK")
G|-------------------------------------|
D|-------------------------------------|
A|-33333333----------------------------|
D|----------66666666-11111111-33333333-| [x5]

G|-------------------------------------|
D|-------------------------------------|
A|-33333333----------------------------|
D|----------66666666-11111111-33-3-3h5-|


Chorus: [x2]
("I shut my mouth" ... "I am the reason")
G|-------------------------------------|
D|-------------------------------------|
A|-------11-3333-----------11-3333-----|
D|-666666-------5555-666666-------1111-| [x6]


Verse Two:
("I'm fine, I'm fine" ... "You have no right to say")
G|-------------------------------------|
D|-------------------------------------|
A|-33333333----------------------------|
D|----------66666666-11111111-33333333-| [x4]

G|-------------------------------------|
D|-------------------------------------|
A|-33333--3----------------------------|
D|----------66666--6-11111--1-33333--3-|

G|-------------------------------------|
D|-------------------------------------|
A|-33333--3----------------------------|
D|----------66666--6-11111--1-33-3---5-|

Chorus:
("I shut my mouth" ... "I am the reason")
G|-------------------------------------|
D|-------------------------------------|
A|-------11-3333-----------11-3333-----|
D|-666666-------5555-666666-------1111-| [x4]

Outro:
("Someday you'll understand" ... "Everything is A-OK")
G|-------------------------------------|
D|-------------------------------------|
A|-------11-3333-----------11-3333-----|
D|-666666-------5555-666666-------1111-| [x2]

G|-----------------|
D|-----------------|
A|-3~------3--3~---|
D|-----------------|
Suggest correction
Give kudos to tab author, rate the tab!
1 2 3 4 5
comments
print report bad tab
guest
You may want to rate the tab now too:
select rating
Wanna post a correction for this tab? Suggest correction