Oops, an error
Loading. Please wait.

Aok Tab

version 2
version 2

Whole song

6,067 views 6 this week
1 commentread comment
1 2 3 4 5
x 4
add to favorites
launch autoscroll
font size
0
reset
how to read this tab
guitar tuner
Autoscroll
slow
fast
+/-
esc
set tempo
stop
Help us to improve Ultimate-Guitar.com Take our survey!
×
Author
Difficulty
Tuning
novice
D A D G B E
Song: Aok
Tabbed By:Mitch Craig
Album: I Am The Movie                    (GUITAR 2 IS BELOW GUITAR 2 )
Band:Motion City Soundtrack
Tuning: Drop D    EBGDAD                  both guitar's MAY be mixed


(Guitar 1=Josh)
(Guitar 2=Justin)
. = Palm Mute
/ = Slide
h = Hammer on
p = Pull Off
* = Harmonic
B = Bend
V = Vibrato
~ = Let Ring



This Is all Guitar 1 Which is josh

Intro/Verse
|--------------------------------------|
|--------------------------------------|
|--------------------------------------|
|-55555555-----------------------------|
|-33333333-66666666-11111111-33333333--|
|----------66666666-11111111-33333333--|
  ........ ........ ........ ........

|------------------------------------------------------------------|
|------------------------------------------------------------------|
|------------------------------------------------------------------|
|-55555555-----------------------------55555555--------------------|
|-33333333-66666666-11111111-33333333--33333333-66666666-11111111--|
|----------66666666-11111111-33333333-----------66666666-11111111--|
  ........ ........ ........ ........  ........ ........ ........

Chorus
|-----------------------------------------------------------------------------|
|-----------------------------------------------------------------------------|
|---------------------8x-------------8x---------------------------------------|
|-33-3-5-6~-8/10-1010-8x-6~--10-1010-8x-----------10-1010-8x-6~--10-1010-888--|
|-33-3-5-6~-8/10-1010-6x-6~--10-1010-6x-----------10-1010-8x-6~--10-1010-666--|
|-33-3-5-6~-8/10-1010--x-6~--10-1010--x-66666666--10-1010-8x-6~--10-1010------|


|--------------------------------------|--------------|
|--------------------------------------|--------------|
|--------------------------------------|--------5~~---|
|-55555555-----------------------------|-33-3-3-5~~---|
|-33333333-66666666-11111111-33333333--|-33-3-3-3~~---|
|----------66666666-11111111-33333333--|-33-3-3-------|

Verse
|--------------------------------------|
|--------------------------------------|
|--------------------------------------|
|-55555555-----------------------------|
|-33333333-66666666-11111111-33333333--|
|----------66666666-11111111-33333333--|

Chorus
|-----------------------------------------------------------------------------|
|-----------------------------------------------------------------------------|
|---------------------8x-------------8x---------------------------------------|
|-33-3-5-6~-8/10-1010-8x-6~--10-1010-8x-----------10-1010-8x-6~--10-1010------|
|-33-3-5-6~-8/10-1010-6x-6~--10-1010-6x-----------10-1010-8x-6~--10-1010------|
|-33-3-5-6~-8/10-1010--x-6~--10-1010--x-66666666--10-1010-8x-6~--10-1010------|

|--------------------------------------|
|--------------------------------------|
|--------------------------------------|
|-55555555-----------------------------|
|-33333333-66666666-11111111-33333333--|
|----------66666666-11111111-33333333--|


Solo part for guitar 2
|-------------------------------------|
|-------------------------------------|
|-------------------------------------|
|-5555-5-5----------------------------|
|-3333-3-3-6666-6-6-1111-1-1--3~333~--|
|----------6666-6-6-1111-1-1--3~333~--|


Chorus
|-----------------------------------------------------------------------------|----|
|-----------------------------------------------------------------------------|----|
|---------------------8x-------------8x---------------------------------------|----|
|-33-3-5-6~-8/10-1010-8x-6~--10-1010-8x-----------10-1010-8x-6~--10-1010------|-6~-|
|-33-3-5-6~-8/10-1010-6x-6~--10-1010-6x-----------10-1010-8x-6~--10-1010------|-6~-|
|-33-3-5-6~-8/10-1010--x-6~--10-1010--x-66666666--10-1010-8x-6~--10-1010------|-6~-|

Outro 2
|-------------------------------------------------|----------------------|
|-------------------------------------------------|----------------------|
|-------------------------------------------------|----------------------|
|-------------------------------------------------|----------------------|
|-6-66-6-10-1010--8-88-6-66-6-10-1010-8-88-6-66-6-|----------------6~6~--|
|-6-66-6-10-1010--8-88-6-66-6-10-1010-6-66-6-66-6-|-8h10-10-6h8-6--6~6~--|
|-6-66-6-10-1010--8-88-6-66-6-10-1010------6-66-6-|----------------6~6~--|





Guitar 2     Justin the singer!


Intro Verse
|-----6-------6---3-4-3-1--3-4-3-1-----6--------6---3-4-3-1--3-4-3--------|
|-4-------4-------------------------4--------4-----------------------4~~--|
|---3---3---3---3---------------------3----3---3--3----------------3~-----|
|-------------------------------------------------------------------------|Guitar 2
|-------------------------------------------------------------------------|
|-------------------------------------------------------------------------|


|----------------------------------------------------------------------------------|
|----------------------------------------------------------------------------------|
|-1010-10-11-12~-17-1717-15x13~--17-1717-15x-13~-17-1717-15x-13~--17-1717-151515---|

2
|-8-8--8--9--10~-15-1515-13x11~--15-1515---x-11~-15-1515-13x-11~--15-1515----------|
|------------------------------------------x---------------x-----------------------|


|-----6-------6---3-4-3-1--3-4-3-1-----6--------6---3-4-3-1--3-4-3------------------|
|-4-------4-------------------------4--------4--------------------------------------|
|---3---3---3---3---------------------3----3---3--3-----------------1010-10-10-8~~--|

2
|-------------------------------------------------------------------8-8--8--8--6~~--|
|-----------------------------------------------------------------------------------|

(Justin Does some weird Guitar here which you can't really hear during the Synthesizer Part)
(So I did This)

|---------------------------------------------------|
|---------------------------------------------------|
|-15-15-15-15-17-17-17-17-13-13-13-13-15-15-15-15---|
|-15-15-15-15-15-15-15-15-13-13-13-13-15-15-15-15---|
|---------------------------------------------------|
|---------------------------------------------------|

Verse
|-----6-------6---3-4-3-1--3-4-3-1-----6--------6---3-4-3-1--3-4-3--------|
|-4-------4-------------------------4--------4-----------------------4~~--|
|---3---3---3---3---------------------3----3---3--3----------------3~-----|
|-------------------------------------------------------------------------|Guitar 2
|-------------------------------------------------------------------------|
|-------------------------------------------------------------------------|

Chorus
|----------------------------------------------------------------------------------|
|----------------------------------------------------------------------------------|
|-1010-10-11-12~-17-1717-15x13~--17-1717-15x-13~-17-1717-15x-13~--17-1717-151515---|

2
|-8-8--8--9--10~-15-1515-13x11~--15-1515---x-11~-15-1515-13x-11~--15-1515----------|
|------------------------------------------x---------------x-----------------------|

I don't know what Justin does in the Bridge I do this by ear you know!
I don't look at other tabs GOD!

Solo

|--------------------66-33-------------------------|
|-11-33-44--11-33-44-------11-33-44-33-3h4p3-------|
|--------------------------------------------5-3---|
|--------------------------------------------------|
|--------------------------------------------------|
|--------------------------------------------------|

Chorus
|----------------------------------------------------------------------------------|
|----------------------------------------------------------------------------------|
|-1010-10-11-12~-17-1717-15x13~--17-1717-15x-13~-17-1717-15x-13~--17-1717-151515---|

2
|-8-8--8--9--10~-15-1515-13x11~--15-1515---x-11~-15-1515-13x-11~--15-1515----------|
|------------------------------------------x---------------x-----------------------|

Outro pt 1
|----------6-------------6----|
|-4-4-4-4-----4-4-4-4---4--4--|
|--3-3-3-3---3-3-3-3-3-3--3---|
|-----------------------------|
|-----------------------------|
|-----------------------------|

Outro pt 2 ???????????
Suggest correction
comments
print report bad tab
1 comment total.
+1 reply
Revlin 575 Jul 28, 2006 02:45 PM

Real nice job on this one mate.

guest
You may want to rate the tab now too:
select rating
Wanna post a correction for this tab? Suggest correction