Oops, an error
Loading. Please wait.

Attractive Today Tab

version 2
version 2

Whole song

Interactive

2,802 views 9 this week
no commentswrite comment
1 2 3 4 5
please rate
add to favorites
launch autoscroll
font size
0
reset
how to read this tab
guitar tuner
Tab Pro tools
  • play this tab
  • loop segment
  • change instrument
  • show fretboard
  • metronome
×
Best way to learn
"Attractive Today"
Autoscroll
slow
fast
+/-
esc
set tempo
stop
Attractive Today by Motion City Soundtrack

Standard Tuning
.... = Palm mute

Intro/Verse 1 Guitar 1
0:00-0:13(Justin starts singing at 0:03)
e--------------------------|
B--------------------------|
G-11-11-11-11-11-11-11-11--|
D--9--9--9--9--9--9--9--9--|(Keep playing this until 0:13)
A--------------------------|
E--------------------------|

Chorus 1 Guitar 1 & 2
0:14-0:23
e-----------------------------------------------------------------|
B-----------------------------------------------------------------|
G-----------------------------------------------------------------|
D-6-6-6-6-8-8-8-8-2-2-2-2-2-2-2-2-6-6-6-6-8-8-8-8-2-2-2-2-2-2-2-2-|
A-6-6-6-6-8-8-8-8-2-2-2-2-2-2-2-2-6-6-6-6-8-8-8-8-2-2-2-2-2-2-2-2-|
E-4-4-4-4-6-6-6-6-0-0-0-0-0-0-0-0-4-4-4-4-6-6-6-6-0-0-0-0-0-0-0-0-|
Chorus 1 continued
e-------------------------------------------------|
B-------------------------------------------------|
G-----------------9-9-9-9-9-9-9-9-9-9-9-9-9-9-9-9-|
D-6-6-6-6-8-8-8-8-9-9-9-9-9-9-9-9-9-9-9-9-9-9-9-9-|
A-6-6-6-6-8-8-8-8-7-7-7-7-7-7-7-7-7-7-7-7-7-7-7-7-|
E-4-4-4-4-6-6-6-6---------------------------------|
Post-Chorus Keyboard/Guitar 1
0:24-0:35
e------------------------------------------------------------|
B-----------------------------------------------------7------|
G-8----8--6--8------6--8--6----------8--6-8-6-----6-8--------|
D-----------------9---------------------------9---------9----|
A-----------------------------9----9-------------------------|
E------------------------------------------------------------|
Guitar 2
0:24-0:35
e-----------------------------------------------------------------|
B-----------------------------------------------------------------|
G-4-4-4-4-4-4-4-4-6-6-6-6-6-6-6-6---------------------------------|
D-4-4-4-4-4-4-4-4-6-6-6-6-6-6-6-6-2-2-2-2-2-2-2-2-2-2-2-2-2-2-2-2-|x2
A-2-2-2-2-2-2-2-2-4-4-4-4-4-4-4-4-2-2-2-2-2-2-2-2-2-2-2-2-2-2-2-2-|
E---------------------------------0-0-0-0-0-0-0-0-0-0-0-0-0-0-0-0-|
Verse 2 Guitar 1
0:36-0:46
e--------------------------------------------------------------------|
B-7-7-7-7-7-------9-9-9-9-9-------7-7-7-9-9-9----7-7-7-9-9-9---------|
G-----------8-8-8-----------8-8-8-------------8-8------------8-8-----|
D--------------------------------------------------------------------|
A--------------------------------------------------------------------|
E--------------------------------------------------------------------|
  . . . . . . . . . . . . . . . . . . . . . . . . . . . . . . . .
Verse 2 Guitar 1 continued
e--------------------------------------------------------------------|
B-7-7-7-7-7-------9-9-9-9-9-------7-7-7-9-9-9----7-7-7-9-9-9---------|
G-----------8-8-8-----------8-8-8-------------8-8------------8-8-----|
D--------------------------------------------------------------------|
A--------------------------------------------------------------------|
E--------------------------------------------------------------------|
  . . . . . . . . . . . . . . . . . . . . . .
Verse 2 Guitar 2
0:36-0:46
e-------------------------------------------------------------------|
B-------------------------------------------------------------------|
G-------------------------------------------------------------------|
D-4-4-4-4-4-4-4-4-6-6-6-6-6-6-6-6-----------------------------------|
A-2-2-2-2-2-2-2-2-4-4-4-4-4-4-4-4-2-2-2-2-2-2-2-2-2-2-2-2-2-2-2-2---|
E---------------------------------0-0-0-0-0-0-0-0-0-0-0-0-0-0-0-0---|
  . . . . . . . . . . . . . . . . . . . . . . . . . . . . . . . .
Verse 2 Guitar 2 continued
e-------------------------------------------------------------------|
B-------------------------------------------------------------------|
G-------------------------------------------------------------------|
D-4-4-4-4-4-4-4-4-6-6-6-6-6-6-6-6-----------------------------------|
A-2-2-2-2-2-2-2-2-4-4-4-4-4-4-4-4-2-2-2-2-2-2-2-2-2-2-2-2-2-2-2-2---|
E---------------------------------0-0-0-0-0-0-0-0-0-0-0-0-0-0-0-0---|
  . . . . . . . . . . . . . . . . . . . . . .
Chorus 2 Guitar 1 & Guitar 2
0:47-0:57
e-----------------------------------------------------------------|
B-----------------------------------------------------------------|
G-----------------------------------------------------------------|
D-6-6-6-6-8-8-8-8-2-2-2-2-2-2-2-2-6-6-6-6-8-8-8-8-2-2-2-2-2-2-2-2-|
A-6-6-6-6-8-8-8-8-2-2-2-2-2-2-2-2-6-6-6-6-8-8-8-8-2-2-2-2-2-2-2-2-|
E-4-4-4-4-6-6-6-6-0-0-0-0-0-0-0-0-4-4-4-4-6-6-6-6-0-0-0-0-0-0-0-0-|
Chorus 2 continued
e-------------------------------------------------|
B-------------------------------------------------|
G-----------------9-9-9-9-9-9-9-9-9-9-9-9-9-9-9-9-|
D-6-6-6-6-8-8-8-8-9-9-9-9-9-9-9-9-9-9-9-9-9-9-9-9-|
A-6-6-6-6-8-8-8-8-7-7-7-7-7-7-7-7-7-7-7-7-7-7-7-7-|
E-4-4-4-4-6-6-6-6---------------------------------|
Solo Guitar 1
0:57-1:08
e-11-------------------------14--12--11-----11----|
B----12---------------12-----------------12----12-|
G-------11---11-13------13------------------------|
D-------------------------------------------------|
A-------------------------------------------------|
E-------------------------------------------------|
Solo Guitar 1 continued
e-11-------------------------14-------14-------14------14------14h16p14-|
B----12---------------12--------12-12----12-12----12-12--12-12----------|
G-------11---11-13------1-----------------------------------------------|
D-----------------------------------------------------------------------|
A-----------------------------------------------------------------------|
E-----------------------------------------------------------------------|
Solo Guitar 2
0:57-1:08
e-----------------------------------------------------------------|
B-----------------------------------------------------------------|
G-4-4-4-4-4-4-4-4-6-6-6-6-6-6-6-6---------------------------------|
D-4-4-4-4-4-4-4-4-6-6-6-6-6-6-6-6-2-2-2-2-2-2-2-2-2-2-2-2-2-2-2-2-|x2
A-2-2-2-2-2-2-2-2-4-4-4-4-4-4-4-4-2-2-2-2-2-2-2-2-2-2-2-2-2-2-2-2-|
E---------------------------------0-0-0-0-0-0-0-0-0-0-0-0-0-0-0-0-|
Chorus 3 Guitar 1 & Guitar 2
1:09-1:15
e---------------------------------------------------------------------------------|
B---------------------------------------------------------------------------------|
G-----------------9-9-9-9-9-9-9-9-----------------9-9-9-9-9-9-9-9-----------------|
D-6-6-6-6-8-8-8-8-9-9-9-9-9-9-9-9-6-6-6-6-8-8-8-8-9-9-9-9-9-9-9-9-6-6-6-6-8-8-8-8-|
A-6-6-6-6-8-8-8-8-7-7-7-7-7-7-7-7-6-6-6-6-8-8-8-8-7-7-7-7-7-7-7-7-6-6-6-6-8-8-8-8-|
E-4-4-4-4-6-6-6-6-----------------4-4-4-4-6-6-6-6-----------------4-4-4-4-6-6-6-6-|
Verse 3 Guitar 1
1:16-1:24(Just Vocals 1:26-1:27)
e--------------------------|
B--------------------------|
G-11-11-11-11-11-11-11-11--|
D--9--9--9--9--9--9--9--9--|(Keep playing this until 1:24)
A--------------------------|
E--------------------------|
Chorus 4 Part 1 Guitar 1 & 2
1:28-1:34
e---------------------------------------------------------------------------------|
B---------------------------------------------------------------------------------|
G-----------------9-9-9-9-9-9-9-9-----------------9-9-9-9-9-9-9-9-----------------|
D-6-6-6-6-8-8-8-8-9-9-9-9-9-9-9-9-6-6-6-6-8-8-8-8-9-9-9-9-9-9-9-9-6-6-6-6-8-8-8-8-|
A-6-6-6-6-8-8-8-8-7-7-7-7-7-7-7-7-6-6-6-6-8-8-8-8-7-7-7-7-7-7-7-7-6-6-6-6-8-8-8-8-|
E-4-4-4-4-6-6-6-6-----------------4-4-4-4-6-6-6-6-----------------4-4-4-4-6-6-6-6-|
Chorus 4 Part 2 Guitar 1 & 2
1:35-1:40
e-------------------------------------------------|
B-------------------------------------------------|
G-------------------------------------------------|
D-------------------------------------------------|
A-4-4-4-6-6-6-4-4-6-6-4-4-4-6-6-6-4-4-6-----------|
E-2-2-2-4-4-4-2-2-4-4-2-2-2-4-4-4-2-2-4--slide up-|
comments
We did not receive enough feedback on this tab! Please rate:
print report bad tab
1 2 3 4 5
I want to post or [tab]
guest
You may want to rate the tab now too:
select rating
Please do not post tabs as comments. Select "correction" instead!