Oops, an error
Loading. Please wait.

Autographs And Apologies Bass Tab

830 views 3 this week
3 commentsread comments
1 2 3 4 5
x 3
add to favorites
launch autoscroll
font size
0
reset
guitar tuner
Autoscroll
slow
fast
+/-
esc
set tempo
stop
Help us to improve Ultimate-Guitar.com Take our survey!
×
Artist: Motion City Soundtrack
Bassist: Matthew Taylor
Song: Autographs & Apologies
Album: I Am The Movie
Tabbed By: Lewis [lewis_mason21@hotmail.com]

There's very few MCS Bass tabs on here, so I thought I'd try a few.  Enjoy!

[Tuning: Standard - E,A,D,G]

Key:
x: Dead Note

Verse One: [x2]
("Outline of a storyboard" ... "If I do not care")
G|------------------------------------| 
D|------------------------------------|
A|-33333333-66666666------------------|
E|-------------------4444444444444444-|

Bridge One: [x4]
G|------------------------------------| 
D|------------------------------------|
A|-33333333-66666666------------------|
E|-------------------4444444444444444-|

Chorus Riff: [x1]
G|-----------------------|
D|-8~--------10~---------|
A|------6~---------8~-7~-|
E|-----------------------|

Verse Two: [x4]
("Busy hands keep swimming" ... "Get it over and done")
G|------------------------------------| 
D|------------------------------------|
A|-33333333-66666666------------------|
E|-------------------4444444444444444-|

Chorus: [Note: In the second part, it's "10", not "1" and "0"]
("So much for the autographs" ... "I can't pretend")
G|-----------------------|
D|-8~--------10~---------|
A|------6~---------8~-7~-|
E|-----------------------| [x3]

G|----------------------------------------------|
D|-88888888----------1010101010101010-----------|
A|----------66666666------------------8888-7xxx-|
E|----------------------------------------------| [x1]

Bridge Two:
G|------------------------------------|
D|------------------------------------|
A|-33333333-66666666------------------|
E|-------------------4444444444444444-| [x2]

G|----|
D|----|
A|----|
E|-4\-| [x1]

Verse Three: [Note: That G# slide in the previous bridge counts as the first x1]
("Very I'm so friendly" ... "At least I tried")
G|------------------------------------| 
D|------------------------------------|
A|-33333333-66666666------------------|
E|-------------------4444444444444444-| [x3]


Chorus Variation Part One: [x1]
("So much for the autographs" ... "So much for apologies")
G|-------REST-------|
D|-------REST-------|
A|-------REST-------|
E|-------REST-------|

Chorus Variation Part Two: [x4]
("So much for the promises" ... "I can't pretend")
G|----------------------------------------------|
D|-88888888----------1010101010101010-----------|
A|----------66666666------------------8888-7xxx-|
E|----------------------------------------------|

Outro: [x1]
G|-----------------------------------------------------|
D|-88888888----------101010101010101010101010101010----|
A|----------66666666--------------------------------8~-|
E|-----------------------------------------------------|
Suggest correction
Give kudos to tab author, rate the tab!
1 2 3 4 5
comments
print report bad tab
3 comments total.
0 reply
Revlin 575 Jan 08, 2007 05:33 PM

Right on, I can't find any holes.

0 reply
>>Max<< 233 Jul 15, 2007 04:53 PM

The parts in the song where he goes "so much for autographs...etc" seem way off in this tab. With the 8 and 10. I don't hear that at all. But then again I barely ever play bass so maybe I just don't have an ear for those things.

0 reply
chrisjenks 2,712 Feb 06, 2008 06:46 AM

on the 2nd repeat of 'bridge one' there is a variation:

0:26


G|------------------------------------|
D|------------------------------------|
A|-33333333-66666666-----------6-/8-6-|
E|-------------------444444444--------|

I agree with 'Max' about the 'Chorus Riff'. I hear:

G|-----------------------|
D|-----------------------|
A|-6~--------------------|
E|------4~---3~----4~-6~-|

guest
You may want to rate the tab now too:
select rating
Wanna post a correction for this tab? Suggest correction