Oops, an error
Loading. Please wait.

Better Open The Door Tab

6,929 views 9 this week
3 commentsread comments
1 2 3 4 5
excellent!
x 7
add to favorites
launch autoscroll
font size
0
reset
how to read this tab
guitar tuner
Autoscroll
slow
fast
+/-
esc
set tempo
stop
Help us to improve Ultimate-Guitar.com Take our survey!
×
Difficulty
novice
intro/chorus
guitar
-----------------------------------|
-----------------------------------|
-4-----9------------9-----88-------|
-4-x8--9-x8--6------9-x6--88-------|  X2
-2-----7-----6--x8--7-----66-------|
-------------4---------------------|

intro/chorus
keyboard (boog)
---------------------------------------------------|
------------------------7--------------------------|
--6-8---6-8---6-8---6-8----6-8---6-8---6-8---6-8---|
-------------------------------------------------9-|
------9-----9-----9------------9-----9-----9-------|
---------------------------------------------------|

prechorus-bass

chorus (above)

fill 1
-------------------------|
-----------------5-------|
--4444444444444--6-------|
--4444444444444----------|
--2222222222222----------|
pm.............----------|

verse
guitar
----------------------------------------------------------------------|
----------------------------------------------------------------------|
--4-------------4------------443344-----4-------------4---------------|
--4-x16--6------4-x16--6-----------44---4-x16--6------4-x16--6--------|
--2------6-x16--2------6-x8-------------2------6-x16--2------6-x16----|
pm.------4------.------4----------------.------4-------------4--------|
         .             .                       .

fill 2
--------------------|
--------------------|
-4444444499999999---|
-4444444499999999---|
-2222222277777777---|
--------------------|

chorus

verse

prechorus
----------------------               ----|
----------------------               ----|
-44444444-------------               ----|
-44444444-6666-4444---x4 then end on -2--|
-22222222-6666-4444---               -2--|
----------4444-2222---               -0--|

chorus

bridge (clear)
----------------------------------------|
----------------------------------------|
-11111111-66666666-11111111-44444444----|
----------------------------------------|
----------------------------------------|
----------------------------------------|

2nd guitar (in background-also clear)
-------------------------------|
-7-9-7-9--x6--7-9-7-12-11-x4---|
--------8----------------------|
-------------------------------|
-------------------------------|
-------------------------------|

outro
--------------------------|
--------------------------|
-44444444-----------------|
-44444444--6666--4444-----|
-22222222--6666--4444-----|
-----------4444--2222-----|

intro
prechorus
chorus
fill 1
verse
fill 2
chorus
verse
prechorus
chorus
bridge
outro
Suggest correction
comments
print report bad tab
3 comments total.
+1 reply
ordino 10 wrote on March 18 2006, 07:04 am

awsome. a few mistakes but still good.

+1 reply
Revlin 565 wrote on April 29 2006, 01:10 pm

AH! Great song, great tab!

+1 reply
AVAguitar182 10 wrote on August 24 2007, 08:57 pm

its moog not boog

guest
You may want to rate the tab now too:
select rating
Wanna post a correction for this tab? Suggest correction